999
DXF file: C:\Users\SESA654545\Desktop\sachin babu tesys\Gen2D (4)\Gen2D\CAD\LC1D80D5_3D-CAD\drw0001_4.dxf
999
Pro/ENGINEER 2019471 by Parametric Technology Corporation
  0
SECTION
  2
HEADER
  9
$ACADVER
  1
AC1024
  9
$DWGCODEPAGE
  3
ANSI_1252
  9
$EXTMAX
 10
105.56107841
 20
149.2935251799
 30
0.0
  9
$EXTMIN
 10
0.0
 20
0.0
 30
0.0
  9
$LIMMIN
 10
0.0
 20
0.0
  9
$LIMMAX
 10
105.56107841
 20
149.2935251799
  9
$VIEWCTR
 10
52.780539205
 20
74.6467625899
  9
$VIEWSIZE
 40
149.2935251799
  9
$CLAYER
  8
0
  9
$LTSCALE
 40
9.7317260858
  9
$CELTYPE
  6
BYLAYER
  9
$DIMSCALE
 40
1.0
  9
$DIMASZ
 40
1.2566795049
  9
$DIMEXO
 40
1.0
  9
$DIMDLI
 40
6.7237380229
  9
$DIMEXE
 40
1.0
  9
$DIMCEN
 40
1.5924642686
  9
$DIMLFAC
 40
1.0
  9
$DIMBLK
  1
_FILLED
  9
$DIMALT
 70
0
  9
$DIMALTF
 40
0.0393700787
  9
$DIMTXT
 40
1.7593513068
  9
$DIMTOL
 70
1
  9
$DIMLIM
 70
0
  9
$DIMTFAC
 40
1.0
  9
$DIMTP
 40
0.01
  9
$DIMTM
 40
0.01
  9
$DIMGAP
 40
0.625
  9
$DIMDSEP
 70
46
  9
$AUNITS
 70
0
  9
$PDMODE
 70
3
  9
$PDSIZE
 40
0.3125
  9
$HANDSEED
  5
3BE
  9
$TILEMODE
 70
1
  9
$MEASUREMENT
 70
1
  9
$INSUNITS
 70
4
  0
ENDSEC
  0
SECTION
  2
CLASSES
  0
CLASS
  1
ACDBDICTIONARYWDFLT
  2
AcDbDictionaryWithDefault
  3
AutoCAD 2000
 90
0
 91
1
280
0
281
0
  0
CLASS
  1
ACDBPLACEHOLDER
  2
AcDbPlaceHolder
  3
AutoCAD 2000
 90
0
 91
1
280
0
281
0
  0
CLASS
  1
LAYOUT
  2
AcDbLayout
  3
AutoCAD 2000
 90
0
 91
0
280
0
281
0
  0
ENDSEC
  0
SECTION
  2
TABLES
  0
TABLE
  2
VPORT
  5
8
100
AcDbSymbolTable
 70
2
  0
VPORT
  5
1F4
100
AcDbSymbolTableRecord
100
AcDbViewportTableRecord
  2
*ACTIVE
 70
0
 10
0.0
 20
0.0
 11
1.0
 21
1.0
 12
52.780539205
 22
74.6467625899
 13
0.0
 23
0.0
 14
1.0
 24
1.0
 15
0.0
 25
0.0
 16
0.0
 26
0.0
 36
1.0
 17
0.0
 27
0.0
 37
0.0
 40
149.2935251799
 41
0.7070707071
 42
50.0
 43
0.0
 44
0.0
 50
0.0
 51
0.0
 71
0
 72
100
 73
1
 74
1
 75
0
 76
0
 77
0
 78
0
  0
ENDTAB
  0
TABLE
  2
LTYPE
  5
5
100
AcDbSymbolTable
 70
6
  0
LTYPE
  5
14
100
AcDbSymbolTableRecord
100
AcDbLinetypeTableRecord
  2
BYBLOCK
 70
0
  3

 72
65
 73
0
 40
0.0
  0
LTYPE
  5
15
100
AcDbSymbolTableRecord
100
AcDbLinetypeTableRecord
  2
BYLAYER
 70
0
  3

 72
65
 73
0
 40
0.0
  0
LTYPE
  5
16
100
AcDbSymbolTableRecord
100
AcDbLinetypeTableRecord
  2
CONTINUOUS
 70
64
  3
Solid line
 72
65
 73
0
 40
0.0
  0
LTYPE
  5
1F5
100
AcDbSymbolTableRecord
100
AcDbLinetypeTableRecord
  2
CENTER
 70
64
  3
____ _ ____ _ ____ _ ____ _ ____ _ ____ _ ____
 72
65
 73
4
 40
0.6
 49
0.375
 74
0
 49
-0.075
 74
0
 49
0.075
 74
0
 49
-0.075
 74
0
  0
LTYPE
  5
1F6
100
AcDbSymbolTableRecord
100
AcDbLinetypeTableRecord
  2
HIDDEN
 70
64
  3
- - - - - - - - - - - - - - - - - - - -
 72
65
 73
2
 40
0.2
 49
0.1
 74
0
 49
-0.1
 74
0
  0
LTYPE
  5
1F7
100
AcDbSymbolTableRecord
100
AcDbLinetypeTableRecord
  2
PHANTOM
 70
64
  3
_____ _ _ _____ _ _ _____ _ _ _____
 72
65
 73
6
 40
0.8
 49
0.45
 74
0
 49
-0.05
 74
0
 49
0.1
 74
0
 49
-0.05
 74
0
 49
0.1
 74
0
 49
-0.05
 74
0
  0
LTYPE
  5
1F8
100
AcDbSymbolTableRecord
100
AcDbLinetypeTableRecord
  2
DOT
 70
64
  3
. . . . . . . . . . . . . . . . . . . .
 72
65
 73
2
 40
0.2
 49
0.1
 74
0
 49
-0.1
 74
0
  0
LTYPE
  5
1F9
100
AcDbSymbolTableRecord
100
AcDbLinetypeTableRecord
  2
DASHED
 70
64
  3
- - - - - - - - - - - - - - - - - - - -
 72
65
 73
2
 40
0.2
 49
0.1
 74
0
 49
-0.1
 74
0
  0
ENDTAB
  0
TABLE
  2
LAYER
  5
2
100
AcDbSymbolTable
 70
36
  0
LAYER
  5
10
100
AcDbSymbolTableRecord
100
AcDbLayerTableRecord
  2
0
 70
0
 62
7
  6
CONTINUOUS
370
-3
390
F
  0
LAYER
  5
1FA
100
AcDbSymbolTableRecord
100
AcDbLayerTableRecord
  2
DEFAULT_1
 70
0
 62
7
  6
CENTER
370
-3
390
F
  0
LAYER
  5
1FB
100
AcDbSymbolTableRecord
100
AcDbLayerTableRecord
  2
DEFAULT_2
 70
0
 62
8
  6
HIDDEN
370
-3
390
F
  0
LAYER
  5
1FC
100
AcDbSymbolTableRecord
100
AcDbLayerTableRecord
  2
DEFAULT_3
 70
0
 62
7
  6
PHANTOM
370
-3
390
F
  0
LAYER
  5
1FD
100
AcDbSymbolTableRecord
100
AcDbLayerTableRecord
  2
00_COMPONENTS
 70
0
 62
7
  6
CONTINUOUS
370
-3
390
F
  0
LAYER
  5
1FE
100
AcDbSymbolTableRecord
100
AcDbLayerTableRecord
  2
00_COMPONENTS_1
 70
0
 62
7
  6
CONTINUOUS
370
-3
390
F
  0
LAYER
  5
1FF
100
AcDbSymbolTableRecord
100
AcDbLayerTableRecord
  2
01_1_DEFAULT_DATUMS
 70
0
 62
7
  6
CONTINUOUS
370
-3
390
F
  0
LAYER
  5
200
100
AcDbSymbolTableRecord
100
AcDbLayerTableRecord
  2
01_PLANES
 70
0
 62
7
  6
CONTINUOUS
370
-3
390
F
  0
LAYER
  5
201
100
AcDbSymbolTableRecord
100
AcDbLayerTableRecord
  2
02_COORD_SYS
 70
0
 62
7
  6
CONTINUOUS
370
-3
390
F
  0
LAYER
  5
202
100
AcDbSymbolTableRecord
100
AcDbLayerTableRecord
  2
03_AXES
 70
0
 62
7
  6
CONTINUOUS
370
-3
390
F
  0
LAYER
  5
203
100
AcDbSymbolTableRecord
100
AcDbLayerTableRecord
  2
04_POINTS
 70
0
 62
7
  6
CONTINUOUS
370
-3
390
F
  0
LAYER
  5
204
100
AcDbSymbolTableRecord
100
AcDbLayerTableRecord
  2
05_CURVES
 70
0
 62
7
  6
CONTINUOUS
370
-3
390
F
  0
LAYER
  5
205
100
AcDbSymbolTableRecord
100
AcDbLayerTableRecord
  2
06_SURFS
 70
0
 62
7
  6
CONTINUOUS
370
-3
390
F
  0
LAYER
  5
206
100
AcDbSymbolTableRecord
100
AcDbLayerTableRecord
  2
07_COSMETICS
 70
0
 62
7
  6
CONTINUOUS
370
-3
390
F
  0
LAYER
  5
207
100
AcDbSymbolTableRecord
100
AcDbLayerTableRecord
  2
10_NOTES
 70
0
 62
7
  6
CONTINUOUS
370
-3
390
F
  0
LAYER
  5
208
100
AcDbSymbolTableRecord
100
AcDbLayerTableRecord
  2
11_NOTES_PUB
 70
0
 62
7
  6
CONTINUOUS
370
-3
390
F
  0
LAYER
  5
209
100
AcDbSymbolTableRecord
100
AcDbLayerTableRecord
  2
13_REF_GTOL
 70
0
 62
7
  6
CONTINUOUS
370
-3
390
F
  0
LAYER
  5
20A
100
AcDbSymbolTableRecord
100
AcDbLayerTableRecord
  2
16_MISC
 70
0
 62
7
  6
CONTINUOUS
370
-3
390
F
  0
LAYER
  5
20B
100
AcDbSymbolTableRecord
100
AcDbLayerTableRecord
  2
17_NO_PRINT
 70
0
 62
7
  6
CONTINUOUS
370
-3
390
F
  0
LAYER
  5
20C
100
AcDbSymbolTableRecord
100
AcDbLayerTableRecord
  2
18_DATUM_CAMS_JOINTS
 70
0
 62
7
  6
CONTINUOUS
370
-3
390
F
  0
LAYER
  5
20D
100
AcDbSymbolTableRecord
100
AcDbLayerTableRecord
  2
19_DATUM_FUNCTIONAL
 70
0
 62
7
  6
CONTINUOUS
370
-3
390
F
  0
LAYER
  5
20E
100
AcDbSymbolTableRecord
100
AcDbLayerTableRecord
  2
20_DATUM_KINEMATIC_SCHEME
 70
0
 62
7
  6
CONTINUOUS
370
-3
390
F
  0
ENDTAB
  0
TABLE
  2
STYLE
  5
3
100
AcDbSymbolTable
 70
1
  0
STYLE
  5
11
100
AcDbSymbolTableRecord
100
AcDbTextStyleTableRecord
  2
STANDARD
 70
0
 40
0.0
 41
0.8
 50
0.0
 71
0
 42
0.2
  3
txt
  4

  0
STYLE
  5
20F
100
AcDbSymbolTableRecord
100
AcDbTextStyleTableRecord
  2
TEXTSTYLE_1
 70
0
 40
0.0
 41
0.8
 50
0.0
 71
0
 42
0.2
  3
gdt
  4

  0
ENDTAB
  0
TABLE
  2
VIEW
  5
6
100
AcDbSymbolTable
 70
0
  0
ENDTAB
  0
TABLE
  2
UCS
  5
7
100
AcDbSymbolTable
 70
0
  0
ENDTAB
  0
TABLE
  2
APPID
  5
9
100
AcDbSymbolTable
 70
1
  0
APPID
  5
210
100
AcDbSymbolTableRecord
100
AcDbRegAppTableRecord
  2
ACAD
 70
0
  0
ENDTAB
  0
TABLE
  2
BLOCK_RECORD
  5
1
100
AcDbSymbolTable
 70
0
  0
BLOCK_RECORD
  5
211
100
AcDbSymbolTableRecord
100
AcDbBlockTableRecord
  2
*Model_Space
  0
BLOCK_RECORD
  5
212
100
AcDbSymbolTableRecord
100
AcDbBlockTableRecord
  2
*Paper_Space
  0
BLOCK_RECORD
  5
213
100
AcDbSymbolTableRecord
100
AcDbBlockTableRecord
  2
_FILLED
  0
ENDTAB
  0
TABLE
  2
DIMSTYLE
  5
A
100
AcDbSymbolTable
 70
1
100
AcDbDimStyleTable
 71
0
  0
DIMSTYLE
105
214
100
AcDbSymbolTableRecord
100
AcDbDimStyleTableRecord
  2
STANDARD
 70
0
  3

  4

 40
1.0
 41
1.2566795049
 42
1.0
 43
0.38
 44
1.0
 45
0.0
 46
0.0
 47
0.01
 48
0.01
140
1.7593513068
141
0.09
142
0.0
143
25.4
144
1.0
145
0.0
146
1.0
147
0.625
 71
1
 72
0
 73
0
 74
0
 75
0
 76
0
 77
1
 78
8
 79
2
170
0
171
1
172
0
173
0
174
0
175
0
176
0
177
0
178
0
270
2
179
2
271
2
272
2
273
2
274
2
275
0
280
0
281
0
282
0
283
1
284
8
285
0
286
0
287
3
288
0
340
11
278
46
341
213
342
213
343
213
344
213
  0
ENDTAB
  0
ENDSEC
  0
SECTION
  2
BLOCKS
  0
BLOCK
  5
20
100
AcDbEntity
  8
0
100
AcDbBlockBegin
  2
*Model_Space
 70
0
 10
0.0
 20
0.0
 30
0.0
  3
*Model_Space
  1

  0
ENDBLK
  5
21
100
AcDbEntity
  8
0
100
AcDbBlockEnd
  0
BLOCK
  5
1C
100
AcDbEntity
  8
0
100
AcDbBlockBegin
  2
*Paper_Space
 70
0
 10
0.0
 20
0.0
 30
0.0
  3
*Paper_Space
  1

  0
ENDBLK
  5
1D
100
AcDbEntity
  8
0
100
AcDbBlockEnd
  0
BLOCK
  5
215
100
AcDbEntity
  8
0
100
AcDbBlockBegin
  2
_FILLED
 70
64
 10
0.0
 20
0.0
  3
_FILLED
  1

  0
SOLID
  5
216
100
AcDbEntity
  8
0
  6
BYBLOCK
 62
0
100
AcDbTrace
 10
0.0
 20
0.0
 11
-1.0
 21
0.25
 12
-1.0
 22
-0.25
 13
-1.0
 23
-0.25
  0
ENDBLK
  5
217
100
AcDbEntity
  8
0
  6
BYBLOCK
 62
0
100
AcDbBlockEnd
  0
ENDSEC
  0
SECTION
  2
ENTITIES
  0
LINE
  5
218
100
AcDbEntity
  8
00_COMPONENTS_1
100
AcDbLine
 62
7
  6
CONTINUOUS
 10
47.7510428021
 20
10.6899280576
 11
68.7510428021
 21
10.6899280576
  0
LINE
  5
219
100
AcDbEntity
  8
00_COMPONENTS_1
100
AcDbLine
 62
7
  6
CONTINUOUS
 10
86.6485783572
 20
11.6899571537
 11
77.5003320322
 21
11.6899571537
  0
LINE
  5
21A
100
AcDbEntity
  8
00_COMPONENTS_1
100
AcDbLine
 62
7
  6
CONTINUOUS
 10
31.0011431639
 20
11.6899578733
 11
21.8557501278
 21
11.6899578733
  0
LINE
  5
21B
100
AcDbEntity
  8
00_COMPONENTS_1
100
AcDbLine
 62
7
  6
CONTINUOUS
 10
54.0010428021
 20
13.2148600387
 11
62.5010428021
 21
13.2148600387
  0
LINE
  5
21C
100
AcDbEntity
  8
00_COMPONENTS_1
100
AcDbLine
 62
7
  6
CONTINUOUS
 10
32.7010428021
 20
13.6437559489
 11
39.6010428021
 21
13.6437559489
  0
LINE
  5
21D
100
AcDbEntity
  8
00_COMPONENTS_1
100
AcDbLine
 62
7
  6
CONTINUOUS
 10
56.2010428021
 20
13.6437559489
 11
63.1010428021
 21
13.6437559489
  0
LINE
  5
21E
100
AcDbEntity
  8
00_COMPONENTS_1
100
AcDbLine
 62
7
  6
CONTINUOUS
 10
51.2510428021
 20
15.1899280576
 11
47.7510428021
 21
15.1899280576
  0
LINE
  5
21F
100
AcDbEntity
  8
00_COMPONENTS_1
100
AcDbLine
 62
7
  6
CONTINUOUS
 10
66.7510428021
 20
15.1899280576
 11
68.7510428021
 21
15.1899280576
  0
LINE
  5
220
100
AcDbEntity
  8
00_COMPONENTS_1
100
AcDbLine
 62
7
  6
CONTINUOUS
 10
31.0011431639
 20
15.6899280576
 11
16.9457605526
 21
15.6899280576
  0
LINE
  5
221
100
AcDbEntity
  8
00_COMPONENTS_1
100
AcDbLine
 62
7
  6
CONTINUOUS
 10
51.2514304843
 20
15.6899280576
 11
56.2010428021
 21
15.6899280576
  0
LINE
  5
222
100
AcDbEntity
  8
00_COMPONENTS_1
100
AcDbLine
 62
7
  6
CONTINUOUS
 10
63.1010428021
 20
15.6899280576
 11
66.7510428021
 21
15.6899280576
  0
LINE
  5
223
100
AcDbEntity
  8
00_COMPONENTS_1
100
AcDbLine
 62
7
  6
CONTINUOUS
 10
77.5003320322
 20
15.6899280576
 11
91.5566771101
 21
15.6899280576
  0
LINE
  5
224
100
AcDbEntity
  8
00_COMPONENTS_1
100
AcDbLine
 62
7
  6
CONTINUOUS
 10
84.3510428021
 20
18.6437559489
 11
79.7010428021
 21
18.6437559489
  0
LINE
  5
225
100
AcDbEntity
  8
00_COMPONENTS_1
100
AcDbLine
 62
7
  6
CONTINUOUS
 10
16.1010428021
 20
18.6437559489
 11
11.9010428021
 21
18.6437559489
  0
LINE
  5
226
100
AcDbEntity
  8
00_COMPONENTS_1
100
AcDbLine
 62
7
  6
CONTINUOUS
 10
12.4010428021
 20
19.1437559489
 11
11.9137926419
 21
19.1437559489
  0
LINE
  5
227
100
AcDbEntity
  8
00_COMPONENTS_1
100
AcDbLine
 62
7
  6
CONTINUOUS
 10
71.0010428021
 20
19.1899280576
 11
66.7510428021
 21
19.1899280576
  0
LINE
  5
228
100
AcDbEntity
  8
00_COMPONENTS_1
100
AcDbLine
 62
7
  6
CONTINUOUS
 10
51.2514304843
 20
19.1899280576
 11
47.2508885165
 21
19.1899280576
  0
LINE
  5
229
100
AcDbEntity
  8
00_COMPONENTS_1
100
AcDbLine
 62
7
  6
CONTINUOUS
 10
42.2510561054
 20
19.1899280576
 11
39.6010428021
 21
19.1899280576
  0
LINE
  5
22A
100
AcDbEntity
  8
00_COMPONENTS_1
100
AcDbLine
 62
7
  6
CONTINUOUS
 10
37.812868776
 20
20.1437559489
 11
34.4892168282
 21
20.1437559489
  0
LINE
  5
22B
100
AcDbEntity
  8
00_COMPONENTS_1
100
AcDbLine
 62
7
  6
CONTINUOUS
 10
57.9892168282
 20
20.1437559489
 11
61.312868776
 21
20.1437559489
  0
LINE
  5
22C
100
AcDbEntity
  8
00_COMPONENTS_1
100
AcDbLine
 62
7
  6
CONTINUOUS
 10
39.6010428021
 20
21.6437559489
 11
56.2010428021
 21
21.6437559489
  0
LINE
  5
22D
100
AcDbEntity
  8
00_COMPONENTS_1
100
AcDbLine
 62
7
  6
CONTINUOUS
 10
76.4010428021
 20
21.6437559489
 11
79.7010428021
 21
21.6437559489
  0
LINE
  5
22E
100
AcDbEntity
  8
00_COMPONENTS_1
100
AcDbLine
 62
7
  6
CONTINUOUS
 10
66.7510428021
 20
22.2956994257
 11
63.1010428021
 21
22.2956994257
  0
LINE
  5
22F
100
AcDbEntity
  8
00_COMPONENTS_1
100
AcDbLine
 62
7
  6
CONTINUOUS
 10
84.3510428021
 20
22.2956994257
 11
91.5010428021
 21
22.2956994257
  0
LINE
  5
230
100
AcDbEntity
  8
00_COMPONENTS_1
100
AcDbLine
 62
7
  6
CONTINUOUS
 10
85.9400904476
 20
27.0023887285
 11
84.3510428021
 21
26.9808282828
  0
LINE
  5
231
100
AcDbEntity
  8
00_COMPONENTS_1
100
AcDbLine
 62
7
  6
CONTINUOUS
 10
84.3510428021
 20
24.1445617323
 11
85.8835084482
 21
24.1445617323
  0
LINE
  5
232
100
AcDbEntity
  8
00_COMPONENTS_1
100
AcDbLine
 62
7
  6
CONTINUOUS
 10
83.7010428021
 20
24.4437559489
 11
77.7010428021
 21
24.4437559489
  0
LINE
  5
233
100
AcDbEntity
  8
00_COMPONENTS_1
100
AcDbLine
 62
7
  6
CONTINUOUS
 10
65.7010428021
 20
24.4437559489
 11
54.2010428021
 21
24.4437559489
  0
LINE
  5
234
100
AcDbEntity
  8
00_COMPONENTS_1
100
AcDbLine
 62
7
  6
CONTINUOUS
 10
42.2010428021
 20
24.4437559489
 11
30.7010428021
 21
24.4437559489
  0
LINE
  5
235
100
AcDbEntity
  8
00_COMPONENTS_1
100
AcDbLine
 62
7
  6
CONTINUOUS
 10
18.7010428021
 20
24.4437559489
 11
12.7010428021
 21
24.4437559489
  0
LINE
  5
236
100
AcDbEntity
  8
00_COMPONENTS_1
100
AcDbLine
 62
7
  6
CONTINUOUS
 10
84.3510428021
 20
24.6956994257
 11
86.1359791962
 21
24.6956994257
  0
LINE
  5
237
100
AcDbEntity
  8
00_COMPONENTS_1
100
AcDbLine
 62
7
  6
CONTINUOUS
 10
84.3510428021
 20
28.2262408756
 11
85.9628103768
 21
28.2078105165
  0
LINE
  5
238
100
AcDbEntity
  8
00_COMPONENTS_1
100
AcDbLine
 62
7
  6
CONTINUOUS
 10
11.9010428021
 20
18.6437559489
 11
11.9010428021
 21
130.643755949
  0
LINE
  5
239
100
AcDbEntity
  8
00_COMPONENTS_1
100
AcDbLine
 62
7
  6
CONTINUOUS
 10
11.9137926419
 20
19.1437559489
 11
11.9137926419
 21
42.6975838403
  0
LINE
  5
23A
100
AcDbEntity
  8
00_COMPONENTS_1
100
AcDbLine
 62
7
  6
CONTINUOUS
 10
11.9137926419
 20
106.5899280576
 11
11.9137926419
 21
130.143755949
  0
LINE
  5
23B
100
AcDbEntity
  8
00_COMPONENTS_1
100
AcDbLine
 62
7
  6
CONTINUOUS
 10
12.2757264025
 20
42.6975838403
 11
12.2757264025
 21
106.5899280576
  0
LINE
  5
23C
100
AcDbEntity
  8
00_COMPONENTS_1
100
AcDbLine
 62
7
  6
CONTINUOUS
 10
12.4010428021
 20
130.643755949
 11
12.4010428021
 21
130.143755949
  0
LINE
  5
23D
100
AcDbEntity
  8
00_COMPONENTS_1
100
AcDbLine
 62
7
  6
CONTINUOUS
 10
12.4010428021
 20
18.6437559489
 11
12.4010428021
 21
19.1437559489
  0
LINE
  5
23E
100
AcDbEntity
  8
00_COMPONENTS_1
100
AcDbLine
 62
7
  6
CONTINUOUS
 10
12.7010428021
 20
124.843755949
 11
12.7010428021
 21
106.5899280576
  0
LINE
  5
23F
100
AcDbEntity
  8
00_COMPONENTS_1
100
AcDbLine
 62
7
  6
CONTINUOUS
 10
12.7010428021
 20
24.4437559489
 11
12.7010428021
 21
42.6975838403
  0
LINE
  5
240
100
AcDbEntity
  8
00_COMPONENTS_1
100
AcDbLine
 62
7
  6
CONTINUOUS
 10
84.3510428022
 20
31.6437559489
 11
96.4010428021
 21
31.6437559489
  0
LINE
  5
241
100
AcDbEntity
  8
00_COMPONENTS_1
100
AcDbLine
 62
7
  6
CONTINUOUS
 10
92.4510428021
 20
31.8437559489
 11
84.3510428033
 21
31.8437559489
  0
LINE
  5
242
100
AcDbEntity
  8
00_COMPONENTS_1
100
AcDbLine
 62
7
  6
CONTINUOUS
 10
16.1010428021
 20
24.4437559489
 11
16.1010428021
 21
18.6437559489
  0
LINE
  5
243
100
AcDbEntity
  8
00_COMPONENTS_1
100
AcDbLine
 62
7
  6
CONTINUOUS
 10
16.1010428021
 20
124.843755949
 11
16.1010428021
 21
130.643755949
  0
LINE
  5
244
100
AcDbEntity
  8
00_COMPONENTS_1
100
AcDbLine
 62
7
  6
CONTINUOUS
 10
16.8510428021
 20
137.6899280576
 11
16.8510428021
 21
124.843755949
  0
LINE
  5
245
100
AcDbEntity
  8
00_COMPONENTS_1
100
AcDbLine
 62
7
  6
CONTINUOUS
 10
16.8510428021
 20
24.4437559489
 11
16.8510428021
 21
16.6507656536
  0
LINE
  5
246
100
AcDbEntity
  8
00_COMPONENTS_1
100
AcDbLine
 62
7
  6
CONTINUOUS
 10
89.2716311467
 20
35.9399027908
 11
91.1203100631
 21
35.9648376361
  0
LINE
  5
247
100
AcDbEntity
  8
00_COMPONENTS_1
100
AcDbLine
 62
7
  6
CONTINUOUS
 10
88.1706850997
 20
37.2837282395
 11
86.3214461035
 21
37.2587858751
  0
LINE
  5
248
100
AcDbEntity
  8
00_COMPONENTS_1
100
AcDbLine
 62
7
  6
CONTINUOUS
 10
92.4510428021
 20
36.6437559489
 11
96.4010428021
 21
36.6437559489
  0
LINE
  5
249
100
AcDbEntity
  8
00_COMPONENTS_1
100
AcDbLine
 62
7
  6
CONTINUOUS
 10
92.4510428021
 20
37.4437559489
 11
84.3510428021
 21
37.4437559489
  0
LINE
  5
24A
100
AcDbEntity
  8
00_COMPONENTS_1
100
AcDbLine
 62
7
  6
CONTINUOUS
 10
92.4510428021
 20
38.3937559489
 11
84.3510428021
 21
38.3937559489
  0
LINE
  5
24B
100
AcDbEntity
  8
00_COMPONENTS_1
100
AcDbLine
 62
7
  6
CONTINUOUS
 10
86.2992395987
 20
36.0531183487
 11
88.1715718759
 21
36.0315530233
  0
LINE
  5
24C
100
AcDbEntity
  8
00_COMPONENTS_1
100
AcDbLine
 62
7
  6
CONTINUOUS
 10
91.1431275712
 20
37.1705063348
 11
89.2707533008
 21
37.1920721439
  0
LINE
  5
24D
100
AcDbEntity
  8
00_COMPONENTS_1
100
AcDbLine
 62
7
  6
CONTINUOUS
 10
23.6010428021
 20
38.4486642731
 11
23.6010428021
 21
36.4079063804
  0
LINE
  5
24E
100
AcDbEntity
  8
00_COMPONENTS_1
100
AcDbLine
 62
7
  6
CONTINUOUS
 10
23.6010428021
 20
31.4644475215
 11
23.6010428021
 21
30.0388662028
  0
LINE
  5
24F
100
AcDbEntity
  8
00_COMPONENTS_1
100
AcDbLine
 62
7
  6
CONTINUOUS
 10
23.6010428021
 20
110.8388662028
 11
23.6010428021
 21
112.879464528
  0
LINE
  5
250
100
AcDbEntity
  8
00_COMPONENTS_1
100
AcDbLine
 62
7
  6
CONTINUOUS
 10
23.6010428021
 20
117.8232053659
 11
23.6010428021
 21
119.2486642732
  0
LINE
  5
251
100
AcDbEntity
  8
00_COMPONENTS_1
100
AcDbLine
 62
7
  6
CONTINUOUS
 10
89.2702975412
 20
41.6803414051
 11
91.1193019816
 21
41.7023326343
  0
LINE
  5
252
100
AcDbEntity
  8
00_COMPONENTS_1
100
AcDbLine
 62
7
  6
CONTINUOUS
 10
88.1716834398
 20
43.0381566436
 11
86.3226884337
 21
43.0161655266
  0
LINE
  5
253
100
AcDbEntity
  8
00_COMPONENTS_1
100
AcDbLine
 62
7
  6
CONTINUOUS
 10
11.9137926419
 20
42.6975838403
 11
84.3510428021
 21
42.6975838403
  0
LINE
  5
254
100
AcDbEntity
  8
00_COMPONENTS_1
100
AcDbLine
 62
7
  6
CONTINUOUS
 10
86.2981737541
 20
41.799679118
 11
88.1703991574
 21
41.7747083852
  0
LINE
  5
255
100
AcDbEntity
  8
00_COMPONENTS_1
100
AcDbLine
 62
7
  6
CONTINUOUS
 10
91.1439920965
 20
42.9188191014
 11
89.2715909582
 21
42.9437921781
  0
LINE
  5
256
100
AcDbEntity
  8
00_COMPONENTS_1
100
AcDbLine
 62
7
  6
CONTINUOUS
 10
25.2010428021
 20
119.4096149245
 11
25.2010428021
 21
117.8232053659
  0
LINE
  5
257
100
AcDbEntity
  8
00_COMPONENTS_1
100
AcDbLine
 62
7
  6
CONTINUOUS
 10
25.2010428021
 20
112.879464528
 11
25.2010428021
 21
110.6778885289
  0
LINE
  5
258
100
AcDbEntity
  8
00_COMPONENTS_1
100
AcDbLine
 62
7
  6
CONTINUOUS
 10
25.2010428021
 20
29.8778885288
 11
25.2010428021
 21
31.4644475215
  0
LINE
  5
259
100
AcDbEntity
  8
00_COMPONENTS_1
100
AcDbLine
 62
7
  6
CONTINUOUS
 10
25.2010428021
 20
36.4079063804
 11
25.2010428021
 21
38.6096149244
  0
LINE
  5
25A
100
AcDbEntity
  8
00_COMPONENTS_1
100
AcDbLine
 62
7
  6
CONTINUOUS
 10
84.3510428021
 20
46.3737758174
 11
96.3597650268
 21
46.3737758174
  0
LINE
  5
25B
100
AcDbEntity
  8
00_COMPONENTS_1
100
AcDbLine
 62
7
  6
CONTINUOUS
 10
96.3597623735
 20
46.6437565645
 11
96.4010428021
 21
46.6437565645
  0
LINE
  5
25C
100
AcDbEntity
  8
00_COMPONENTS_1
100
AcDbLine
 62
7
  6
CONTINUOUS
 10
31.0011431639
 20
11.6899578733
 11
31.0011431639
 21
24.4437559489
  0
LINE
  5
25D
100
AcDbEntity
  8
00_COMPONENTS_1
100
AcDbLine
 62
7
  6
CONTINUOUS
 10
31.8529339658
 20
124.9393450444
 11
31.8529339658
 21
137.6899280576
  0
LINE
  5
25E
100
AcDbEntity
  8
00_COMPONENTS_1
100
AcDbLine
 62
7
  6
CONTINUOUS
 10
32.7010428021
 20
135.643755949
 11
32.7010428021
 21
124.843755949
  0
LINE
  5
25F
100
AcDbEntity
  8
00_COMPONENTS_1
100
AcDbLine
 62
7
  6
CONTINUOUS
 10
32.7010428021
 20
13.6437559489
 11
32.7010428021
 21
24.4437559489
  0
LINE
  5
260
100
AcDbEntity
  8
00_COMPONENTS_1
100
AcDbLine
 62
7
  6
CONTINUOUS
 10
34.4892168282
 20
129.143755949
 11
34.4892168282
 21
124.843755949
  0
LINE
  5
261
100
AcDbEntity
  8
00_COMPONENTS_1
100
AcDbLine
 62
7
  6
CONTINUOUS
 10
34.4892168282
 20
20.1437559489
 11
34.4892168282
 21
24.4437559489
  0
LINE
  5
262
100
AcDbEntity
  8
00_COMPONENTS_1
100
AcDbLine
 62
7
  6
CONTINUOUS
 10
40.8201319622
 20
48.6820703841
 11
41.5793431317
 21
47.1610186718
  0
LINE
  5
263
100
AcDbEntity
  8
00_COMPONENTS_1
100
AcDbLine
 62
7
  6
CONTINUOUS
 10
44.8152079852
 20
48.7761542519
 11
44.0559968157
 21
50.2972059642
  0
LINE
  5
264
100
AcDbEntity
  8
00_COMPONENTS_1
100
AcDbLine
 62
7
  6
CONTINUOUS
 10
34.5459140471
 20
24.4437559489
 11
34.5459140471
 21
20.1437559489
  0
LINE
  5
265
100
AcDbEntity
  8
00_COMPONENTS_1
100
AcDbLine
 62
7
  6
CONTINUOUS
 10
34.5459140471
 20
124.843755949
 11
34.5459140471
 21
129.143755949
  0
LINE
  5
266
100
AcDbEntity
  8
00_COMPONENTS_1
100
AcDbLine
 62
7
  6
CONTINUOUS
 10
34.5940995573
 20
20.1437559489
 11
34.5940995573
 21
13.6437559489
  0
LINE
  5
267
100
AcDbEntity
  8
00_COMPONENTS_1
100
AcDbLine
 62
7
  6
CONTINUOUS
 10
34.5940995573
 20
129.143755949
 11
34.5940995573
 21
135.643755949
  0
LINE
  5
268
100
AcDbEntity
  8
00_COMPONENTS_1
100
AcDbLine
 62
7
  6
CONTINUOUS
 10
34.7408416301
 20
20.1437559489
 11
34.7408416301
 21
13.6437559489
  0
LINE
  5
269
100
AcDbEntity
  8
00_COMPONENTS_1
100
AcDbLine
 62
7
  6
CONTINUOUS
 10
34.7408416301
 20
129.143755949
 11
34.7408416301
 21
135.643755949
  0
LINE
  5
26A
100
AcDbEntity
  8
00_COMPONENTS_1
100
AcDbLine
 62
7
  6
CONTINUOUS
 10
37.5612439742
 20
20.1437559489
 11
37.5612439742
 21
13.6437559489
  0
LINE
  5
26B
100
AcDbEntity
  8
00_COMPONENTS_1
100
AcDbLine
 62
7
  6
CONTINUOUS
 10
37.5612439742
 20
129.143755949
 11
37.5612439742
 21
135.643755949
  0
LINE
  5
26C
100
AcDbEntity
  8
00_COMPONENTS_1
100
AcDbLine
 62
7
  6
CONTINUOUS
 10
37.7079860469
 20
20.1437559489
 11
37.7079860469
 21
13.6437559489
  0
LINE
  5
26D
100
AcDbEntity
  8
00_COMPONENTS_1
100
AcDbLine
 62
7
  6
CONTINUOUS
 10
37.7079860469
 20
129.143755949
 11
37.7079860469
 21
135.643755949
  0
LINE
  5
26E
100
AcDbEntity
  8
00_COMPONENTS_1
100
AcDbLine
 62
7
  6
CONTINUOUS
 10
37.7561715571
 20
24.4437559489
 11
37.7561715571
 21
20.1437559489
  0
LINE
  5
26F
100
AcDbEntity
  8
00_COMPONENTS_1
100
AcDbLine
 62
7
  6
CONTINUOUS
 10
37.7561715571
 20
124.843755949
 11
37.7561715571
 21
129.143755949
  0
LINE
  5
270
100
AcDbEntity
  8
00_COMPONENTS_1
100
AcDbLine
 62
7
  6
CONTINUOUS
 10
37.812868776
 20
129.143755949
 11
37.8128687761
 21
124.843755949
  0
LINE
  5
271
100
AcDbEntity
  8
00_COMPONENTS_1
100
AcDbLine
 62
7
  6
CONTINUOUS
 10
37.812868776
 20
20.1437559489
 11
37.8128687761
 21
24.4437559489
  0
LINE
  5
272
100
AcDbEntity
  8
00_COMPONENTS_1
100
AcDbLine
 62
7
  6
CONTINUOUS
 10
41.0287401984
 20
59.126093008
 11
64.9280152343
 21
59.165608128
  0
LINE
  5
273
100
AcDbEntity
  8
00_COMPONENTS_1
100
AcDbLine
 62
7
  6
CONTINUOUS
 10
40.9945422337
 20
79.8260612233
 11
41.0287401984
 21
59.126093008
  0
LINE
  5
274
100
AcDbEntity
  8
00_COMPONENTS_1
100
AcDbLine
 62
7
  6
CONTINUOUS
 10
39.6010428021
 20
24.4437559489
 11
39.6010428021
 21
13.6437559489
  0
LINE
  5
275
100
AcDbEntity
  8
00_COMPONENTS_1
100
AcDbLine
 62
7
  6
CONTINUOUS
 10
39.6010428021
 20
124.843755949
 11
39.6010428021
 21
135.643755949
  0
LINE
  5
276
100
AcDbEntity
  8
00_COMPONENTS_1
100
AcDbLine
 62
7
  6
CONTINUOUS
 10
41.9010428021
 20
24.4437559489
 11
41.9010428021
 21
21.6437559489
  0
LINE
  5
277
100
AcDbEntity
  8
00_COMPONENTS_1
100
AcDbLine
 62
7
  6
CONTINUOUS
 10
42.2510543908
 20
21.6437559489
 11
42.2510561054
 21
19.1899280576
  0
LINE
  5
278
100
AcDbEntity
  8
00_COMPONENTS_1
100
AcDbLine
 62
7
  6
CONTINUOUS
 10
44.154426656
 20
128.2956994262
 11
44.154426656
 21
129.439185931
  0
LINE
  5
279
100
AcDbEntity
  8
00_COMPONENTS_1
100
AcDbLine
 62
7
  6
CONTINUOUS
 10
46.6478895631
 20
129.4399363109
 11
46.6478895631
 21
128.2956994263
  0
LINE
  5
27A
100
AcDbEntity
  8
00_COMPONENTS_1
100
AcDbLine
 62
7
  6
CONTINUOUS
 10
46.840038998
 20
124.2956994263
 11
46.840038998
 21
124.0705996422
  0
LINE
  5
27B
100
AcDbEntity
  8
00_COMPONENTS_1
100
AcDbLine
 62
7
  6
CONTINUOUS
 10
47.1010428021
 20
38.4486642731
 11
47.1010428021
 21
36.4079063804
  0
LINE
  5
27C
100
AcDbEntity
  8
00_COMPONENTS_1
100
AcDbLine
 62
7
  6
CONTINUOUS
 10
47.1010428021
 20
31.4644475216
 11
47.1010428021
 21
30.0388662028
  0
LINE
  5
27D
100
AcDbEntity
  8
00_COMPONENTS_1
100
AcDbLine
 62
7
  6
CONTINUOUS
 10
47.1010428021
 20
110.8388662028
 11
47.1010428021
 21
112.879464528
  0
LINE
  5
27E
100
AcDbEntity
  8
00_COMPONENTS_1
100
AcDbLine
 62
7
  6
CONTINUOUS
 10
47.1010428021
 20
117.8232053659
 11
47.1010428021
 21
119.2486642732
  0
LINE
  5
27F
100
AcDbEntity
  8
00_COMPONENTS_1
100
AcDbLine
 62
7
  6
CONTINUOUS
 10
47.4181665942
 20
24.4246672012
 11
47.4181665942
 21
25.4437559489
  0
LINE
  5
280
100
AcDbEntity
  8
00_COMPONENTS_1
100
AcDbLine
 62
7
  6
CONTINUOUS
 10
47.7510428021
 20
10.6899280576
 11
47.7510428021
 21
15.1899280576
  0
LINE
  5
281
100
AcDbEntity
  8
00_COMPONENTS_1
100
AcDbLine
 62
7
  6
CONTINUOUS
 10
48.4181665942
 20
25.4075565261
 11
48.4181665942
 21
24.4246672012
  0
LINE
  5
282
100
AcDbEntity
  8
00_COMPONENTS_1
100
AcDbLine
 62
7
  6
CONTINUOUS
 10
48.7010428021
 20
119.4096149245
 11
48.7010428021
 21
117.8232053659
  0
LINE
  5
283
100
AcDbEntity
  8
00_COMPONENTS_1
100
AcDbLine
 62
7
  6
CONTINUOUS
 10
48.7010428021
 20
112.879464528
 11
48.7010428021
 21
110.6778885289
  0
LINE
  5
284
100
AcDbEntity
  8
00_COMPONENTS_1
100
AcDbLine
 62
7
  6
CONTINUOUS
 10
48.7010428021
 20
29.8778885288
 11
48.7010428021
 21
31.4644475215
  0
LINE
  5
285
100
AcDbEntity
  8
00_COMPONENTS_1
100
AcDbLine
 62
7
  6
CONTINUOUS
 10
48.7010428021
 20
36.4079063804
 11
48.7010428021
 21
38.6096149244
  0
LINE
  5
286
100
AcDbEntity
  8
00_COMPONENTS_1
100
AcDbLine
 62
7
  6
CONTINUOUS
 10
48.7510428021
 20
124.2848278717
 11
48.7510428021
 21
123.843755949
  0
LINE
  5
287
100
AcDbEntity
  8
00_COMPONENTS_1
100
AcDbLine
 62
7
  6
CONTINUOUS
 10
51.0083290383
 20
128.2956994263
 11
51.0083290383
 21
129.6859239838
  0
LINE
  5
288
100
AcDbEntity
  8
00_COMPONENTS_1
100
AcDbLine
 62
7
  6
CONTINUOUS
 10
51.2510428021
 20
15.1899280576
 11
51.2514304843
 21
19.1899280576
  0
LINE
  5
289
100
AcDbEntity
  8
00_COMPONENTS_1
100
AcDbLine
 62
7
  6
CONTINUOUS
 10
52.4010428021
 20
24.7437521751
 11
52.4010428021
 21
21.6437559489
  0
LINE
  5
28A
100
AcDbEntity
  8
00_COMPONENTS_1
100
AcDbLine
 62
7
  6
CONTINUOUS
 10
54.0010428021
 20
15.6899280576
 11
54.0010428021
 21
13.2148600387
  0
LINE
  5
28B
100
AcDbEntity
  8
00_COMPONENTS_1
100
AcDbLine
 62
7
  6
CONTINUOUS
 10
55.8010428021
 20
127.643755949
 11
55.8010428021
 21
128.2956994263
  0
LINE
  5
28C
100
AcDbEntity
  8
00_COMPONENTS_1
100
AcDbLine
 62
7
  6
CONTINUOUS
 10
56.2010428021
 20
135.643755949
 11
56.2010428021
 21
124.843755949
  0
LINE
  5
28D
100
AcDbEntity
  8
00_COMPONENTS_1
100
AcDbLine
 62
7
  6
CONTINUOUS
 10
56.2010428021
 20
13.6437559489
 11
56.2010428021
 21
24.4437559489
  0
LINE
  5
28E
100
AcDbEntity
  8
00_COMPONENTS_1
100
AcDbLine
 62
7
  6
CONTINUOUS
 10
57.9892168282
 20
129.143755949
 11
57.9892168282
 21
124.843755949
  0
LINE
  5
28F
100
AcDbEntity
  8
00_COMPONENTS_1
100
AcDbLine
 62
7
  6
CONTINUOUS
 10
57.9892168282
 20
20.1437559489
 11
57.9892168282
 21
24.4437559489
  0
LINE
  5
290
100
AcDbEntity
  8
00_COMPONENTS_1
100
AcDbLine
 62
7
  6
CONTINUOUS
 10
58.0459140455
 20
24.4437559489
 11
58.0459140455
 21
20.1437559489
  0
LINE
  5
291
100
AcDbEntity
  8
00_COMPONENTS_1
100
AcDbLine
 62
7
  6
CONTINUOUS
 10
58.0459140455
 20
124.843755949
 11
58.0459140455
 21
129.143755949
  0
LINE
  5
292
100
AcDbEntity
  8
00_COMPONENTS_1
100
AcDbLine
 62
7
  6
CONTINUOUS
 10
58.0940995561
 20
20.1437559489
 11
58.0940995561
 21
13.6437559489
  0
LINE
  5
293
100
AcDbEntity
  8
00_COMPONENTS_1
100
AcDbLine
 62
7
  6
CONTINUOUS
 10
58.0940995561
 20
129.143755949
 11
58.0940995561
 21
135.643755949
  0
LINE
  5
294
100
AcDbEntity
  8
00_COMPONENTS_1
100
AcDbLine
 62
7
  6
CONTINUOUS
 10
58.2408416445
 20
20.1437559489
 11
58.2408416445
 21
13.6437559489
  0
LINE
  5
295
100
AcDbEntity
  8
00_COMPONENTS_1
100
AcDbLine
 62
7
  6
CONTINUOUS
 10
58.2408416445
 20
129.143755949
 11
58.2408416445
 21
135.643755949
  0
LINE
  5
296
100
AcDbEntity
  8
00_COMPONENTS_1
100
AcDbLine
 62
7
  6
CONTINUOUS
 10
64.8938172696
 20
79.8655763433
 11
40.9945422337
 21
79.8260612233
  0
LINE
  5
297
100
AcDbEntity
  8
00_COMPONENTS_1
100
AcDbLine
 62
7
  6
CONTINUOUS
 10
64.8938172696
 20
79.8655763433
 11
64.9280152343
 21
59.165608128
  0
LINE
  5
298
100
AcDbEntity
  8
00_COMPONENTS_1
100
AcDbLine
 62
7
  6
CONTINUOUS
 10
61.0612439573
 20
20.1437559489
 11
61.0612439573
 21
13.6437559489
  0
LINE
  5
299
100
AcDbEntity
  8
00_COMPONENTS_1
100
AcDbLine
 62
7
  6
CONTINUOUS
 10
61.0612439573
 20
129.143755949
 11
61.0612439573
 21
135.643755949
  0
LINE
  5
29A
100
AcDbEntity
  8
00_COMPONENTS_1
100
AcDbLine
 62
7
  6
CONTINUOUS
 10
61.2079860457
 20
20.1437559489
 11
61.2079860457
 21
13.6437559489
  0
LINE
  5
29B
100
AcDbEntity
  8
00_COMPONENTS_1
100
AcDbLine
 62
7
  6
CONTINUOUS
 10
61.2079860457
 20
129.143755949
 11
61.2079860457
 21
135.643755949
  0
LINE
  5
29C
100
AcDbEntity
  8
00_COMPONENTS_1
100
AcDbLine
 62
7
  6
CONTINUOUS
 10
61.2561715588
 20
24.4437559489
 11
61.2561715588
 21
20.1437559489
  0
LINE
  5
29D
100
AcDbEntity
  8
00_COMPONENTS_1
100
AcDbLine
 62
7
  6
CONTINUOUS
 10
61.2561715588
 20
124.843755949
 11
61.2561715588
 21
129.143755949
  0
LINE
  5
29E
100
AcDbEntity
  8
00_COMPONENTS_1
100
AcDbLine
 62
7
  6
CONTINUOUS
 10
61.312868776
 20
129.143755949
 11
61.3128687761
 21
124.843755949
  0
LINE
  5
29F
100
AcDbEntity
  8
00_COMPONENTS_1
100
AcDbLine
 62
7
  6
CONTINUOUS
 10
61.312868776
 20
20.1437559489
 11
61.3128687761
 21
24.4437559489
  0
LINE
  5
2A0
100
AcDbEntity
  8
00_COMPONENTS_1
100
AcDbLine
 62
7
  6
CONTINUOUS
 10
62.5010428021
 20
13.2148600387
 11
62.5010428021
 21
13.6437559489
  0
LINE
  5
2A1
100
AcDbEntity
  8
00_COMPONENTS_1
100
AcDbLine
 62
7
  6
CONTINUOUS
 10
63.1010428021
 20
24.4437559489
 11
63.1010428021
 21
13.6437559489
  0
LINE
  5
2A2
100
AcDbEntity
  8
00_COMPONENTS_1
100
AcDbLine
 62
7
  6
CONTINUOUS
 10
63.1010428021
 20
124.843755949
 11
63.1010428021
 21
135.643755949
  0
LINE
  5
2A3
100
AcDbEntity
  8
00_COMPONENTS_1
100
AcDbLine
 62
7
  6
CONTINUOUS
 10
66.1510428021
 20
24.5187550055
 11
66.1510428021
 21
22.2956994257
  0
LINE
  5
2A4
100
AcDbEntity
  8
00_COMPONENTS_1
100
AcDbLine
 62
7
  6
CONTINUOUS
 10
66.7510428021
 20
15.1899280576
 11
66.7510428021
 21
24.6187537475
  0
LINE
  5
2A5
100
AcDbEntity
  8
00_COMPONENTS_1
100
AcDbLine
 62
7
  6
CONTINUOUS
 10
67.3217927844
 20
124.5736343499
 11
67.3217927844
 21
124.7827669451
  0
LINE
  5
2A6
100
AcDbEntity
  8
00_COMPONENTS_1
100
AcDbLine
 62
7
  6
CONTINUOUS
 10
68.3217927844
 20
124.7827669451
 11
68.3217927844
 21
124.4069697798
  0
LINE
  5
2A7
100
AcDbEntity
  8
00_COMPONENTS_1
100
AcDbLine
 62
7
  6
CONTINUOUS
 10
68.7510427984
 20
24.9520828871
 11
68.7510427984
 21
19.1899280576
  0
LINE
  5
2A8
100
AcDbEntity
  8
00_COMPONENTS_1
100
AcDbLine
 62
7
  6
CONTINUOUS
 10
68.7510428021
 20
10.6899280576
 11
68.7510428021
 21
15.1899280576
  0
LINE
  5
2A9
100
AcDbEntity
  8
00_COMPONENTS_1
100
AcDbLine
 62
7
  6
CONTINUOUS
 10
70.6010428021
 20
38.4486642731
 11
70.6010428021
 21
36.4079063804
  0
LINE
  5
2AA
100
AcDbEntity
  8
00_COMPONENTS_1
100
AcDbLine
 62
7
  6
CONTINUOUS
 10
70.6010428021
 20
31.4644475216
 11
70.6010428021
 21
30.0388662028
  0
LINE
  5
2AB
100
AcDbEntity
  8
00_COMPONENTS_1
100
AcDbLine
 62
7
  6
CONTINUOUS
 10
70.6010428021
 20
110.8388662028
 11
70.6010428021
 21
112.879464528
  0
LINE
  5
2AC
100
AcDbEntity
  8
00_COMPONENTS_1
100
AcDbLine
 62
7
  6
CONTINUOUS
 10
70.6010428021
 20
117.8232053659
 11
70.6010428021
 21
119.2486642732
  0
LINE
  5
2AD
100
AcDbEntity
  8
00_COMPONENTS_1
100
AcDbLine
 62
7
  6
CONTINUOUS
 10
71.0010428021
 20
24.6925007582
 11
71.0010428021
 21
19.1899280576
  0
LINE
  5
2AE
100
AcDbEntity
  8
00_COMPONENTS_1
100
AcDbLine
 62
7
  6
CONTINUOUS
 10
72.2010428021
 20
119.4096149245
 11
72.2010428021
 21
117.8232053659
  0
LINE
  5
2AF
100
AcDbEntity
  8
00_COMPONENTS_1
100
AcDbLine
 62
7
  6
CONTINUOUS
 10
72.2010428021
 20
112.879464528
 11
72.2010428021
 21
110.6778885289
  0
LINE
  5
2B0
100
AcDbEntity
  8
00_COMPONENTS_1
100
AcDbLine
 62
7
  6
CONTINUOUS
 10
72.2010428021
 20
29.8778885288
 11
72.2010428021
 21
31.4644475215
  0
LINE
  5
2B1
100
AcDbEntity
  8
00_COMPONENTS_1
100
AcDbLine
 62
7
  6
CONTINUOUS
 10
72.2010428021
 20
36.4079063804
 11
72.2010428021
 21
38.6096149244
  0
LINE
  5
2B2
100
AcDbEntity
  8
00_COMPONENTS_1
100
AcDbLine
 62
7
  6
CONTINUOUS
 10
73.4010428021
 20
124.1270982975
 11
73.4010428021
 21
127.643755949
  0
LINE
  5
2B3
100
AcDbEntity
  8
00_COMPONENTS_1
100
AcDbLine
 62
7
  6
CONTINUOUS
 10
75.1510428021
 20
132.343755949
 11
75.1510428021
 21
127.643755949
  0
LINE
  5
2B4
100
AcDbEntity
  8
00_COMPONENTS_1
100
AcDbLine
 62
7
  6
CONTINUOUS
 10
44.0559968157
 20
50.2972059642
 11
40.8201319622
 21
48.6820703841
  0
LINE
  5
2B5
100
AcDbEntity
  8
00_COMPONENTS_1
100
AcDbLine
 62
7
  6
CONTINUOUS
 10
41.5793431317
 20
47.1610186718
 11
44.8152079852
 21
48.7761542519
  0
LINE
  5
2B6
100
AcDbEntity
  8
00_COMPONENTS_1
100
AcDbLine
 62
7
  6
CONTINUOUS
 10
76.4010428021
 20
24.6604198901
 11
76.4010428021
 21
21.6437559489
  0
LINE
  5
2B7
100
AcDbEntity
  8
00_COMPONENTS_1
100
AcDbLine
 62
7
  6
CONTINUOUS
 10
76.8260428021
 20
128.2956994263
 11
76.8260428021
 21
127.643755949
  0
LINE
  5
2B8
100
AcDbEntity
  8
00_COMPONENTS_1
100
AcDbLine
 62
7
  6
CONTINUOUS
 10
77.5003320322
 20
21.6437559489
 11
77.5003320322
 21
11.6899571537
  0
LINE
  5
2B9
100
AcDbEntity
  8
00_COMPONENTS_1
100
AcDbLine
 62
7
  6
CONTINUOUS
 10
79.7010428021
 20
130.643755949
 11
79.7010428021
 21
124.843755949
  0
LINE
  5
2BA
100
AcDbEntity
  8
00_COMPONENTS_1
100
AcDbLine
 62
7
  6
CONTINUOUS
 10
79.7010428021
 20
18.6437559489
 11
79.7010428021
 21
24.4437559489
  0
LINE
  5
2BB
100
AcDbEntity
  8
00_COMPONENTS_1
100
AcDbLine
 62
7
  6
CONTINUOUS
 10
83.7010428021
 20
124.843755949
 11
83.7010428021
 21
106.5899280576
  0
LINE
  5
2BC
100
AcDbEntity
  8
00_COMPONENTS_1
100
AcDbLine
 62
7
  6
CONTINUOUS
 10
83.7010428021
 20
42.6975838403
 11
83.7010428021
 21
24.4437559489
  0
LINE
  5
2BD
100
AcDbEntity
  8
00_COMPONENTS_1
100
AcDbLine
 62
7
  6
CONTINUOUS
 10
83.8517616758
 20
106.5899280576
 11
83.8517616758
 21
42.6975838403
  0
LINE
  5
2BE
100
AcDbEntity
  8
00_COMPONENTS_1
100
AcDbLine
 62
7
  6
CONTINUOUS
 10
84.3510428021
 20
18.6437559489
 11
84.3510428021
 21
46.3737758174
  0
LINE
  5
2BF
100
AcDbEntity
  8
00_COMPONENTS_1
100
AcDbLine
 62
7
  6
CONTINUOUS
 10
84.3510428021
 20
102.9137360804
 11
84.3510428021
 21
130.643755949
  0
LINE
  5
2C0
100
AcDbEntity
  8
00_COMPONENTS_1
100
AcDbLine
 62
7
  6
CONTINUOUS
 10
84.8871196085
 20
24.6956994257
 11
84.8871196088
 21
25.4592770525
  0
LINE
  5
2C1
100
AcDbEntity
  8
00_COMPONENTS_1
100
AcDbLine
 62
7
  6
CONTINUOUS
 10
84.8871254068
 20
124.2956994263
 11
84.8871254068
 21
123.9072167232
  0
LINE
  5
2C2
100
AcDbEntity
  8
00_COMPONENTS_1
100
AcDbLine
 62
7
  6
CONTINUOUS
 10
96.4010428021
 20
102.6437553333
 11
96.3597623735
 21
102.6437553333
  0
LINE
  5
2C3
100
AcDbEntity
  8
00_COMPONENTS_1
100
AcDbLine
 62
7
  6
CONTINUOUS
 10
84.3510428021
 20
102.9137360804
 11
96.3597650268
 21
102.9137360804
  0
LINE
  5
2C4
100
AcDbEntity
  8
00_COMPONENTS_1
100
AcDbLine
 62
7
  6
CONTINUOUS
 10
88.1716834398
 20
106.2493552542
 11
88.1741227963
 21
103.8495518607
  0
LINE
  5
2C5
100
AcDbEntity
  8
00_COMPONENTS_1
100
AcDbLine
 62
7
  6
CONTINUOUS
 10
88.1703991574
 20
107.5128035126
 11
88.1680805319
 21
109.7938335082
  0
LINE
  5
2C6
100
AcDbEntity
  8
00_COMPONENTS_1
100
AcDbLine
 62
7
  6
CONTINUOUS
 10
89.2680801914
 20
109.7949281285
 11
89.2702975412
 21
107.6071704928
  0
LINE
  5
2C7
100
AcDbEntity
  8
00_COMPONENTS_1
100
AcDbLine
 62
7
  6
CONTINUOUS
 10
89.2741219766
 20
103.8506894862
 11
89.2715909582
 21
106.3437197197
  0
LINE
  5
2C8
100
AcDbEntity
  8
00_COMPONENTS_1
100
AcDbLine
 62
7
  6
CONTINUOUS
 10
88.1705717685
 20
37.4437559489
 11
88.1706850997
 21
37.2837282395
  0
LINE
  5
2C9
100
AcDbEntity
  8
00_COMPONENTS_1
100
AcDbLine
 62
7
  6
CONTINUOUS
 10
88.1715718759
 20
36.0315530233
 11
88.1730698895
 21
33.9163030954
  0
LINE
  5
2CA
100
AcDbEntity
  8
00_COMPONENTS_1
100
AcDbLine
 62
7
  6
CONTINUOUS
 10
89.2730697111
 20
33.9171150986
 11
89.2716311467
 21
35.9399027908
  0
LINE
  5
2CB
100
AcDbEntity
  8
00_COMPONENTS_1
100
AcDbLine
 62
7
  6
CONTINUOUS
 10
89.2707533008
 20
37.1920721439
 11
89.2705747431
 21
37.4437559489
  0
LINE
  5
2CC
100
AcDbEntity
  8
00_COMPONENTS_1
100
AcDbLine
 62
7
  6
CONTINUOUS
 10
85.6959908429
 20
106.8191508388
 11
85.6959902871
 21
106.8222213685
  0
LINE
  5
2CD
100
AcDbEntity
  8
00_COMPONENTS_1
100
AcDbLine
 62
7
  6
CONTINUOUS
 10
85.9462182499
 20
113.6831503524
 11
85.9462182499
 21
113.6393069756
  0
LINE
  5
2CE
100
AcDbEntity
  8
00_COMPONENTS_1
100
AcDbLine
 62
7
  6
CONTINUOUS
 10
85.9462182499
 20
35.6482049222
 11
85.9462182499
 21
35.6043615454
  0
LINE
  5
2CF
100
AcDbEntity
  8
00_COMPONENTS_1
100
AcDbLine
 62
7
  6
CONTINUOUS
 10
85.9485428021
 20
35.415249961
 11
85.9485428021
 21
35.7661515997
  0
LINE
  5
2D0
100
AcDbEntity
  8
00_COMPONENTS_1
100
AcDbLine
 62
7
  6
CONTINUOUS
 10
85.9485428021
 20
35.9331593209
 11
85.9485428021
 21
36.0476837171
  0
LINE
  5
2D1
100
AcDbEntity
  8
00_COMPONENTS_1
100
AcDbLine
 62
7
  6
CONTINUOUS
 10
85.9485428021
 20
113.2398281808
 11
85.9485428021
 21
113.354352577
  0
LINE
  5
2D2
100
AcDbEntity
  8
00_COMPONENTS_1
100
AcDbLine
 62
7
  6
CONTINUOUS
 10
85.9485428021
 20
113.5213602982
 11
85.9485428021
 21
113.8722619369
  0
LINE
  5
2D3
100
AcDbEntity
  8
00_COMPONENTS_1
100
AcDbLine
 62
7
  6
CONTINUOUS
 10
86.7260428021
 20
27.4156712167
 11
86.7260428021
 21
26.3065709797
  0
LINE
  5
2D4
100
AcDbEntity
  8
00_COMPONENTS_1
100
AcDbLine
 62
7
  6
CONTINUOUS
 10
86.7760428021
 20
124.2848278717
 11
86.7760428021
 21
123.1757276347
  0
LINE
  5
2D5
100
AcDbEntity
  8
00_COMPONENTS_1
100
AcDbLine
 62
7
  6
CONTINUOUS
 10
85.6959908429
 20
42.468361059
 11
85.6959902871
 21
42.4652905293
  0
LINE
  5
2D6
100
AcDbEntity
  8
00_COMPONENTS_1
100
AcDbLine
 62
7
  6
CONTINUOUS
 10
88.1705717685
 20
111.843755949
 11
88.1706850997
 21
112.0037836584
  0
LINE
  5
2D7
100
AcDbEntity
  8
00_COMPONENTS_1
100
AcDbLine
 62
7
  6
CONTINUOUS
 10
88.1715718759
 20
113.2559588745
 11
88.1730698895
 21
115.3712088025
  0
LINE
  5
2D8
100
AcDbEntity
  8
00_COMPONENTS_1
100
AcDbLine
 62
7
  6
CONTINUOUS
 10
89.2730697111
 20
115.3703967993
 11
89.2716311467
 21
113.347609107
  0
LINE
  5
2D9
100
AcDbEntity
  8
00_COMPONENTS_1
100
AcDbLine
 62
7
  6
CONTINUOUS
 10
89.2707533008
 20
112.095439754
 11
89.2705747431
 21
111.843755949
  0
LINE
  5
2DA
100
AcDbEntity
  8
00_COMPONENTS_1
100
AcDbLine
 62
7
  6
CONTINUOUS
 10
88.1741227963
 20
45.4379600371
 11
88.1716834398
 21
43.0381566436
  0
LINE
  5
2DB
100
AcDbEntity
  8
00_COMPONENTS_1
100
AcDbLine
 62
7
  6
CONTINUOUS
 10
88.1703991574
 20
41.7747083852
 11
88.1680805917
 21
39.4937372069
  0
LINE
  5
2DC
100
AcDbEntity
  8
00_COMPONENTS_1
100
AcDbLine
 62
7
  6
CONTINUOUS
 10
89.2680802507
 20
39.4926423374
 11
89.2702975412
 21
41.6803414051
  0
LINE
  5
2DD
100
AcDbEntity
  8
00_COMPONENTS_1
100
AcDbLine
 62
7
  6
CONTINUOUS
 10
89.2715909582
 20
42.9437921781
 11
89.2741219766
 21
45.4368224116
  0
LINE
  5
2DE
100
AcDbEntity
  8
00_COMPONENTS_1
100
AcDbLine
 62
7
  6
CONTINUOUS
 10
89.2715909582
 20
106.3437197197
 11
91.1439920965
 21
106.3686927964
  0
LINE
  5
2DF
100
AcDbEntity
  8
00_COMPONENTS_1
100
AcDbLine
 62
7
  6
CONTINUOUS
 10
88.1703991574
 20
107.5128035126
 11
86.2981737541
 21
107.4878327798
  0
LINE
  5
2E0
100
AcDbEntity
  8
00_COMPONENTS_1
100
AcDbLine
 62
7
  6
CONTINUOUS
 10
11.9137926419
 20
106.5899280576
 11
84.3510428021
 21
106.5899280576
  0
LINE
  5
2E1
100
AcDbEntity
  8
00_COMPONENTS_1
100
AcDbLine
 62
7
  6
CONTINUOUS
 10
86.3226884337
 20
106.2713463712
 11
88.1716834398
 21
106.2493552542
  0
LINE
  5
2E2
100
AcDbEntity
  8
00_COMPONENTS_1
100
AcDbLine
 62
7
  6
CONTINUOUS
 10
91.1193019816
 20
107.5851792636
 11
89.2702975412
 21
107.6071704928
  0
LINE
  5
2E3
100
AcDbEntity
  8
00_COMPONENTS_1
100
AcDbLine
 62
7
  6
CONTINUOUS
 10
91.7460950021
 20
106.8252923463
 11
91.7460955583
 21
106.8222213342
  0
LINE
  5
2E4
100
AcDbEntity
  8
00_COMPONENTS_1
100
AcDbLine
 62
7
  6
CONTINUOUS
 10
91.5010428021
 20
22.2956994257
 11
91.5010428021
 21
31.6437559489
  0
LINE
  5
2E5
100
AcDbEntity
  8
00_COMPONENTS_1
100
AcDbLine
 62
7
  6
CONTINUOUS
 10
91.5010428021
 20
117.643755949
 11
91.5010428021
 21
128.2956994263
  0
LINE
  5
2E6
100
AcDbEntity
  8
00_COMPONENTS_1
100
AcDbLine
 62
7
  6
CONTINUOUS
 10
91.6510428021
 20
16.650765392
 11
91.6510428021
 21
31.6437559489
  0
LINE
  5
2E7
100
AcDbEntity
  8
00_COMPONENTS_1
100
AcDbLine
 62
7
  6
CONTINUOUS
 10
91.6510428021
 20
117.643755949
 11
91.6510428021
 21
132.6966146803
  0
LINE
  5
2E8
100
AcDbEntity
  8
00_COMPONENTS_1
100
AcDbLine
 62
7
  6
CONTINUOUS
 10
92.4510428021
 20
31.6437559489
 11
92.4510428021
 21
46.3737758174
  0
LINE
  5
2E9
100
AcDbEntity
  8
00_COMPONENTS_1
100
AcDbLine
 62
7
  6
CONTINUOUS
 10
92.4510428021
 20
102.9137360804
 11
92.4510428021
 21
117.643755949
  0
LINE
  5
2EA
100
AcDbEntity
  8
00_COMPONENTS_1
100
AcDbLine
 62
7
  6
CONTINUOUS
 10
91.7460950021
 20
42.462219551
 11
91.7460955583
 21
42.4652905637
  0
LINE
  5
2EB
100
AcDbEntity
  8
00_COMPONENTS_1
100
AcDbLine
 62
7
  6
CONTINUOUS
 10
91.1431275712
 20
112.117005563
 11
89.2707533008
 21
112.095439754
  0
LINE
  5
2EC
100
AcDbEntity
  8
00_COMPONENTS_1
100
AcDbLine
 62
7
  6
CONTINUOUS
 10
86.2992395987
 20
113.2343935491
 11
88.1715718759
 21
113.2559588745
  0
LINE
  5
2ED
100
AcDbEntity
  8
00_COMPONENTS_1
100
AcDbLine
 62
7
  6
CONTINUOUS
 10
92.4510428021
 20
110.893755949
 11
84.3510428021
 21
110.893755949
  0
LINE
  5
2EE
100
AcDbEntity
  8
00_COMPONENTS_1
100
AcDbLine
 62
7
  6
CONTINUOUS
 10
92.4510428021
 20
111.843755949
 11
84.3510428021
 21
111.843755949
  0
LINE
  5
2EF
100
AcDbEntity
  8
00_COMPONENTS_1
100
AcDbLine
 62
7
  6
CONTINUOUS
 10
92.4510428021
 20
112.643755949
 11
96.4010428021
 21
112.643755949
  0
LINE
  5
2F0
100
AcDbEntity
  8
00_COMPONENTS_1
100
AcDbLine
 62
7
  6
CONTINUOUS
 10
88.1706850997
 20
112.0037836583
 11
86.3214461035
 21
112.0287260227
  0
LINE
  5
2F1
100
AcDbEntity
  8
00_COMPONENTS_1
100
AcDbLine
 62
7
  6
CONTINUOUS
 10
89.2716311467
 20
113.3476091069
 11
91.1203100631
 21
113.3226742617
  0
LINE
  5
2F2
100
AcDbEntity
  8
00_COMPONENTS_1
100
AcDbLine
 62
7
  6
CONTINUOUS
 10
95.8492716815
 20
46.3737758174
 11
95.8492716815
 21
102.9137360804
  0
LINE
  5
2F3
100
AcDbEntity
  8
00_COMPONENTS_1
100
AcDbLine
 62
7
  6
CONTINUOUS
 10
96.3597623735
 20
102.6437553333
 11
96.3597650268
 21
102.9137360804
  0
LINE
  5
2F4
100
AcDbEntity
  8
00_COMPONENTS_1
100
AcDbLine
 62
7
  6
CONTINUOUS
 10
96.3597623735
 20
46.6437565645
 11
96.3597650268
 21
46.3737758174
  0
LINE
  5
2F5
100
AcDbEntity
  8
00_COMPONENTS_1
100
AcDbLine
 62
7
  6
CONTINUOUS
 10
96.4010428021
 20
31.6437559489
 11
96.4010428021
 21
117.643755949
  0
LINE
  5
2F6
100
AcDbEntity
  8
00_COMPONENTS_1
100
AcDbLine
 62
7
  6
CONTINUOUS
 10
92.4510428021
 20
117.443755949
 11
84.3510428033
 21
117.443755949
  0
LINE
  5
2F7
100
AcDbEntity
  8
00_COMPONENTS_1
100
AcDbLine
 62
7
  6
CONTINUOUS
 10
84.3510428021
 20
117.643755949
 11
96.4010428021
 21
117.643755949
  0
LINE
  5
2F8
100
AcDbEntity
  8
00_COMPONENTS_1
100
AcDbLine
 62
7
  6
CONTINUOUS
 10
85.9628099649
 20
121.1720438465
 11
84.3510428021
 21
121.1536156016
  0
LINE
  5
2F9
100
AcDbEntity
  8
00_COMPONENTS_1
100
AcDbLine
 62
7
  6
CONTINUOUS
 10
86.7760428021
 20
124.2956994263
 11
84.3510428021
 21
124.2956994263
  0
LINE
  5
2FA
100
AcDbEntity
  8
00_COMPONENTS_1
100
AcDbLine
 62
7
  6
CONTINUOUS
 10
48.7510428021
 20
124.2956994263
 11
44.1538986057
 21
124.2956994263
  0
LINE
  5
2FB
100
AcDbEntity
  8
00_COMPONENTS_1
100
AcDbLine
 62
7
  6
CONTINUOUS
 10
12.7010428021
 20
124.843755949
 11
18.7010428021
 21
124.843755949
  0
LINE
  5
2FC
100
AcDbEntity
  8
00_COMPONENTS_1
100
AcDbLine
 62
7
  6
CONTINUOUS
 10
30.7010428021
 20
124.843755949
 11
42.2010428021
 21
124.843755949
  0
LINE
  5
2FD
100
AcDbEntity
  8
00_COMPONENTS_1
100
AcDbLine
 62
7
  6
CONTINUOUS
 10
54.2010428021
 20
124.843755949
 11
65.7010428021
 21
124.843755949
  0
LINE
  5
2FE
100
AcDbEntity
  8
00_COMPONENTS_1
100
AcDbLine
 62
7
  6
CONTINUOUS
 10
77.7010428021
 20
124.843755949
 11
83.7010428021
 21
124.843755949
  0
LINE
  5
2FF
100
AcDbEntity
  8
00_COMPONENTS_1
100
AcDbLine
 62
7
  6
CONTINUOUS
 10
84.3510428021
 20
122.3990276529
 11
85.9400900626
 21
122.3774687857
  0
LINE
  5
300
100
AcDbEntity
  8
00_COMPONENTS_1
100
AcDbLine
 62
7
  6
CONTINUOUS
 10
55.8010428021
 20
127.643755949
 11
56.2010428021
 21
127.643755949
  0
LINE
  5
301
100
AcDbEntity
  8
00_COMPONENTS_1
100
AcDbLine
 62
7
  6
CONTINUOUS
 10
63.1010428021
 20
127.643755949
 11
79.7010428021
 21
127.643755949
  0
LINE
  5
302
100
AcDbEntity
  8
00_COMPONENTS_1
100
AcDbLine
 62
7
  6
CONTINUOUS
 10
91.5010428021
 20
128.2956994263
 11
84.3510428021
 21
128.2956994263
  0
LINE
  5
303
100
AcDbEntity
  8
00_COMPONENTS_1
100
AcDbLine
 62
7
  6
CONTINUOUS
 10
39.6010428021
 20
128.2956994263
 11
56.2010428021
 21
128.2956994263
  0
LINE
  5
304
100
AcDbEntity
  8
00_COMPONENTS_1
100
AcDbLine
 62
7
  6
CONTINUOUS
 10
75.1510428021
 20
128.2956994263
 11
79.7010428021
 21
128.2956994263
  0
LINE
  5
305
100
AcDbEntity
  8
00_COMPONENTS_1
100
AcDbLine
 62
7
  6
CONTINUOUS
 10
39.6010428021
 20
128.68992806
 11
44.154426656
 21
128.68992806
  0
LINE
  5
306
100
AcDbEntity
  8
00_COMPONENTS_1
100
AcDbLine
 62
7
  6
CONTINUOUS
 10
75.1510428021
 20
128.68992806
 11
79.7010428021
 21
128.68992806
  0
LINE
  5
307
100
AcDbEntity
  8
00_COMPONENTS_1
100
AcDbLine
 62
7
  6
CONTINUOUS
 10
84.3510428021
 20
128.68992806
 11
91.6510428021
 21
128.68992806
  0
LINE
  5
308
100
AcDbEntity
  8
00_COMPONENTS_1
100
AcDbLine
 62
7
  6
CONTINUOUS
 10
34.4892168282
 20
129.143755949
 11
37.812868776
 21
129.143755949
  0
LINE
  5
309
100
AcDbEntity
  8
00_COMPONENTS_1
100
AcDbLine
 62
7
  6
CONTINUOUS
 10
57.9892168282
 20
129.143755949
 11
61.312868776
 21
129.143755949
  0
LINE
  5
30A
100
AcDbEntity
  8
00_COMPONENTS_1
100
AcDbLine
 62
7
  6
CONTINUOUS
 10
12.4010428021
 20
130.143755949
 11
11.9137926419
 21
130.143755949
  0
LINE
  5
30B
100
AcDbEntity
  8
00_COMPONENTS_1
100
AcDbLine
 62
7
  6
CONTINUOUS
 10
84.3510428021
 20
130.643755949
 11
79.7010428021
 21
130.643755949
  0
LINE
  5
30C
100
AcDbEntity
  8
00_COMPONENTS_1
100
AcDbLine
 62
7
  6
CONTINUOUS
 10
16.1010428021
 20
130.643755949
 11
11.9010428021
 21
130.643755949
  0
LINE
  5
30D
100
AcDbEntity
  8
00_COMPONENTS_1
100
AcDbLine
 62
7
  6
CONTINUOUS
 10
63.1010428021
 20
132.343755949
 11
75.1510428021
 21
132.343755949
  0
LINE
  5
30E
100
AcDbEntity
  8
00_COMPONENTS_1
100
AcDbLine
 62
7
  6
CONTINUOUS
 10
32.7010428021
 20
135.643755949
 11
39.6010428021
 21
135.643755949
  0
LINE
  5
30F
100
AcDbEntity
  8
00_COMPONENTS_1
100
AcDbLine
 62
7
  6
CONTINUOUS
 10
56.2010428021
 20
135.643755949
 11
63.1010428021
 21
135.643755949
  0
LINE
  5
310
100
AcDbEntity
  8
00_COMPONENTS_1
100
AcDbLine
 62
7
  6
CONTINUOUS
 10
16.8510428021
 20
137.6899280576
 11
31.8529339658
 21
137.6899280576
  0
LINE
  5
311
100
AcDbEntity
  8
00_COMPONENTS_1
100
AcDbLine
 62
7
  6
CONTINUOUS
 10
39.3224727229
 20
137.6899280576
 11
86.7612802095
 21
137.6899280576
  0
ARC
  5
312
100
AcDbEntity
  8
00_COMPONENTS_1
100
AcDbCircle
 62
7
  6
CONTINUOUS
 10
48.2010428021
 20
6.9437559489
 40
18.5
100
AcDbArc
 50
71.0753555839
 51
108.9246444161
  0
ARC
  5
313
100
AcDbEntity
  8
00_COMPONENTS_1
100
AcDbCircle
 62
7
  6
CONTINUOUS
 10
24.7010428021
 20
6.9437559489
 40
18.5
100
AcDbArc
 50
71.0753555839
 51
108.9246444161
  0
CIRCLE
  5
314
100
AcDbEntity
  8
00_COMPONENTS_1
100
AcDbCircle
 62
7
  6
CONTINUOUS
 10
48.2010428021
 20
34.2437559489
 40
4.5
  0
CIRCLE
  5
315
100
AcDbEntity
  8
00_COMPONENTS_1
100
AcDbCircle
 62
7
  6
CONTINUOUS
 10
24.7010428021
 20
34.2437559489
 40
4.5
  0
ARC
  5
316
100
AcDbEntity
  8
00_COMPONENTS_1
100
AcDbCircle
 62
7
  6
CONTINUOUS
 10
47.9181665942
 20
27.4840789094
 40
3.1
100
AcDbArc
 50
236.7871498376
 51
305.7602428682
  0
CIRCLE
  5
317
100
AcDbEntity
  8
00_COMPONENTS_1
100
AcDbCircle
 62
7
  6
CONTINUOUS
 10
42.9567533507
 20
48.7985295608
 40
2.999365364
  0
ARC
  5
318
100
AcDbEntity
  8
00_COMPONENTS_1
100
AcDbCircle
 62
7
  6
CONTINUOUS
 10
24.4010428021
 20
33.936176951
 40
2.5981038024
100
AcDbArc
 50
72.0662636261
 51
107.9337363739
  0
ARC
  5
319
100
AcDbEntity
  8
00_COMPONENTS_1
100
AcDbCircle
 62
7
  6
CONTINUOUS
 10
24.4010428021
 20
33.936176951
 40
2.5981038024
100
AcDbArc
 50
252.0662636261
 51
287.9337363739
  0
ARC
  5
31A
100
AcDbEntity
  8
00_COMPONENTS_1
100
AcDbCircle
 62
7
  6
CONTINUOUS
 10
47.9010428021
 20
33.936176951
 40
2.5981038024
100
AcDbArc
 50
72.0662636261
 51
107.9337363739
  0
ARC
  5
31B
100
AcDbEntity
  8
00_COMPONENTS_1
100
AcDbCircle
 62
7
  6
CONTINUOUS
 10
47.9010428021
 20
33.936176951
 40
2.5981038024
100
AcDbArc
 50
252.0662636261
 51
287.9337363739
  0
CIRCLE
  5
31C
100
AcDbEntity
  8
00_COMPONENTS_1
100
AcDbCircle
 62
7
  6
CONTINUOUS
 10
42.9567480539
 20
48.7985507142
 40
2.55
  0
ARC
  5
31D
100
AcDbEntity
  8
00_COMPONENTS_1
100
AcDbCircle
 62
7
  6
CONTINUOUS
 10
47.2508885165
 20
21.6894918046
 40
2.4995637471
100
AcDbArc
 50
180.9657520638
 51
270.0000000004
  0
ARC
  5
31E
100
AcDbEntity
  8
00_COMPONENTS_1
100
AcDbCircle
 62
7
  6
CONTINUOUS
 10
48.2010428021
 20
142.343755949
 40
18.5
100
AcDbArc
 50
251.0753555839
 51
288.9246444161
  0
ARC
  5
31F
100
AcDbEntity
  8
00_COMPONENTS_1
100
AcDbCircle
 62
7
  6
CONTINUOUS
 10
24.7010428021
 20
142.343755949
 40
18.5
100
AcDbArc
 50
251.0753555839
 51
288.9246444161
  0
ARC
  5
320
100
AcDbEntity
  8
00_COMPONENTS_1
100
AcDbCircle
 62
7
  6
CONTINUOUS
 10
39.3492163848
 20
132.6955898326
 40
4.9944098281
100
AcDbArc
 50
90.3068042733
 51
142.595763018
  0
CIRCLE
  5
321
100
AcDbEntity
  8
00_COMPONENTS_1
100
AcDbCircle
 62
7
  6
CONTINUOUS
 10
24.7010428021
 20
115.043755949
 40
4.5
  0
CIRCLE
  5
322
100
AcDbEntity
  8
00_COMPONENTS_1
100
AcDbCircle
 62
7
  6
CONTINUOUS
 10
48.2010428021
 20
115.043755949
 40
4.5
  0
ARC
  5
323
100
AcDbEntity
  8
00_COMPONENTS_1
100
AcDbCircle
 62
7
  6
CONTINUOUS
 10
54.2579736534
 20
129.6859239838
 40
3.2496446151
100
AcDbArc
 50
54.2134856303
 51
180.0000000007
  0
CIRCLE
  5
324
100
AcDbEntity
  8
00_COMPONENTS_1
100
AcDbCircle
 62
7
  6
CONTINUOUS
 10
24.3515709313
 20
130.1920527736
 40
3.2496446151
  0
ARC
  5
325
100
AcDbEntity
  8
00_COMPONENTS_1
100
AcDbCircle
 62
7
  6
CONTINUOUS
 10
47.9010428021
 20
115.3513349469
 40
2.5981038024
100
AcDbArc
 50
252.0662636261
 51
287.9337363739
  0
ARC
  5
326
100
AcDbEntity
  8
00_COMPONENTS_1
100
AcDbCircle
 62
7
  6
CONTINUOUS
 10
47.9010428021
 20
115.3513349469
 40
2.5981038024
100
AcDbArc
 50
72.0662636261
 51
107.9337363739
  0
ARC
  5
327
100
AcDbEntity
  8
00_COMPONENTS_1
100
AcDbCircle
 62
7
  6
CONTINUOUS
 10
24.4010428021
 20
115.3513349469
 40
2.5981038024
100
AcDbArc
 50
252.0662636261
 51
287.9337363739
  0
ARC
  5
328
100
AcDbEntity
  8
00_COMPONENTS_1
100
AcDbCircle
 62
7
  6
CONTINUOUS
 10
24.4010428021
 20
115.3513349469
 40
2.5981038024
100
AcDbArc
 50
72.0662636261
 51
107.9337363739
  0
ARC
  5
329
100
AcDbEntity
  8
00_COMPONENTS_1
100
AcDbCircle
 62
7
  6
CONTINUOUS
 10
33.1038702613
 20
124.9393450444
 40
1.2509362955
100
AcDbArc
 50
180.0000000013
 51
184.8999936709
  0
ARC
  5
32A
100
AcDbEntity
  8
00_COMPONENTS_1
100
AcDbCircle
 62
7
  6
CONTINUOUS
 10
45.4011582225
 20
129.439185931
 40
1.2467315665
100
AcDbArc
 50
0.034485054
 51
180.0000000018
  0
ARC
  5
32B
100
AcDbEntity
  8
00_COMPONENTS_1
100
AcDbCircle
 62
7
  6
CONTINUOUS
 10
71.7010428021
 20
6.9437559489
 40
18.5
100
AcDbArc
 50
71.0753555839
 51
108.9246444161
  0
ARC
  5
32C
100
AcDbEntity
  8
00_COMPONENTS_1
100
AcDbCircle
 62
7
  6
CONTINUOUS
 10
74.2506874172
 20
24.6925007582
 40
3.2496446151
100
AcDbArc
 50
161.7468006252
 51
179.9999999995
  0
CIRCLE
  5
32D
100
AcDbEntity
  8
00_COMPONENTS_1
100
AcDbCircle
 62
7
  6
CONTINUOUS
 10
71.7010428021
 20
34.2437559489
 40
4.5
  0
ARC
  5
32E
100
AcDbEntity
  8
00_COMPONENTS_1
100
AcDbCircle
 62
7
  6
CONTINUOUS
 10
71.4010428021
 20
33.936176951
 40
2.5981038024
100
AcDbArc
 50
72.0662636261
 51
107.9337363739
  0
ARC
  5
32F
100
AcDbEntity
  8
00_COMPONENTS_1
100
AcDbCircle
 62
7
  6
CONTINUOUS
 10
71.4010428021
 20
33.936176951
 40
2.5981038024
100
AcDbArc
 50
252.0662636261
 51
287.9337363739
  0
ARC
  5
330
100
AcDbEntity
  8
00_COMPONENTS_1
100
AcDbCircle
 62
7
  6
CONTINUOUS
 10
88.0981122976
 20
36.4388915041
 40
2.2950097256
100
AcDbArc
 50
229.6255087809
 51
233.9098040646
  0
ARC
  5
331
100
AcDbEntity
  8
00_COMPONENTS_1
100
AcDbCircle
 62
7
  6
CONTINUOUS
 10
87.2948942128
 20
36.1028334942
 40
1.4459531291
100
AcDbArc
 50
205.9330958781
 51
206.6856403357
  0
ARC
  5
332
100
AcDbEntity
  8
00_COMPONENTS_1
100
AcDbCircle
 62
7
  6
CONTINUOUS
 10
89.0043479275
 20
37.5953496384
 40
3.625462838
100
AcDbArc
 50
215.3699819882
 51
227.3609733778
  0
ARC
  5
333
100
AcDbEntity
  8
00_COMPONENTS_1
100
AcDbCircle
 62
7
  6
CONTINUOUS
 10
88.3124523162
 20
37.5665365829
 40
3.5946730724
100
AcDbArc
 50
323.3296463718
 51
331.7262318212
  0
ARC
  5
334
100
AcDbEntity
  8
00_COMPONENTS_1
100
AcDbCircle
 62
7
  6
CONTINUOUS
 10
88.9732789205
 20
37.5731330857
 40
3.5872680623
100
AcDbArc
 50
212.9953688505
 51
215.3678792823
  0
ARC
  5
335
100
AcDbEntity
  8
00_COMPONENTS_1
100
AcDbCircle
 62
7
  6
CONTINUOUS
 10
88.9561138664
 20
37.5618600763
 40
3.5667325258
100
AcDbArc
 50
212.4476586044
 51
212.9936461132
  0
ARC
  5
336
100
AcDbEntity
  8
00_COMPONENTS_1
100
AcDbCircle
 62
7
  6
CONTINUOUS
 10
88.3414631077
 20
37.5504088992
 40
3.5614840205
100
AcDbArc
 50
331.7336575594
 51
336.2039123018
  0
ARC
  5
337
100
AcDbEntity
  8
00_COMPONENTS_1
100
AcDbCircle
 62
7
  6
CONTINUOUS
 10
88.3553865712
 20
37.3123347799
 40
3.5458128088
100
AcDbArc
 50
334.1331136053
 51
342.7787127684
  0
ARC
  5
338
100
AcDbEntity
  8
00_COMPONENTS_1
100
AcDbCircle
 62
7
  6
CONTINUOUS
 10
88.3673520871
 20
37.5391957488
 40
3.5332716266
100
AcDbArc
 50
336.200898236
 51
341.5362571097
  0
ARC
  5
339
100
AcDbEntity
  8
00_COMPONENTS_1
100
AcDbCircle
 62
7
  6
CONTINUOUS
 10
88.4131252903
 20
37.5235846938
 40
3.4849105557
100
AcDbArc
 50
341.5413684104
 51
344.4742122753
  0
ARC
  5
33A
100
AcDbEntity
  8
00_COMPONENTS_1
100
AcDbCircle
 62
7
  6
CONTINUOUS
 10
88.4145922668
 20
37.292593259
 40
3.4834169176
100
AcDbArc
 50
342.8005536948
 51
345.5218288549
  0
ARC
  5
33B
100
AcDbEntity
  8
00_COMPONENTS_1
100
AcDbCircle
 62
7
  6
CONTINUOUS
 10
88.4433590659
 20
37.2852976068
 40
3.453739675
100
AcDbArc
 50
345.5197044685
 51
349.4291505384
  0
ARC
  5
33C
100
AcDbEntity
  8
00_COMPONENTS_1
100
AcDbCircle
 62
7
  6
CONTINUOUS
 10
88.6046621238
 20
37.9804928463
 40
3.2100308664
100
AcDbArc
 50
205.3252321057
 51
206.3839741733
  0
ARC
  5
33D
100
AcDbEntity
  8
00_COMPONENTS_1
100
AcDbCircle
 62
7
  6
CONTINUOUS
 10
88.5999707214
 20
37.9783167193
 40
3.2048594836
100
AcDbArc
 50
201.0808292084
 51
205.3259434039
  0
ARC
  5
33E
100
AcDbEntity
  8
00_COMPONENTS_1
100
AcDbCircle
 62
7
  6
CONTINUOUS
 10
88.6912261342
 20
37.9753711219
 40
3.2048395276
100
AcDbArc
 50
347.4665430634
 51
348.4409736169
  0
ARC
  5
33F
100
AcDbEntity
  8
00_COMPONENTS_1
100
AcDbCircle
 62
7
  6
CONTINUOUS
 10
88.6948326159
 20
37.9745748604
 40
3.2011461939
100
AcDbArc
 50
347.0270696716
 51
347.466447211
  0
ARC
  5
340
100
AcDbEntity
  8
00_COMPONENTS_1
100
AcDbCircle
 62
7
  6
CONTINUOUS
 10
88.5883312648
 20
36.0519028512
 40
3.1922885006
100
AcDbArc
 50
154.1507521206
 51
179.9911624966
  0
ARC
  5
341
100
AcDbEntity
  8
00_COMPONENTS_1
100
AcDbCircle
 62
7
  6
CONTINUOUS
 10
88.7037543395
 20
36.0519028512
 40
3.1922885006
100
AcDbArc
 50
0.0088375034
 51
25.8492478794
  0
ARC
  5
342
100
AcDbEntity
  8
00_COMPONENTS_1
100
AcDbCircle
 62
7
  6
CONTINUOUS
 10
88.5879200303
 20
37.9724720855
 40
3.1915788668
100
AcDbArc
 50
191.7433215328
 51
196.6247252559
  0
ARC
  5
343
100
AcDbEntity
  8
00_COMPONENTS_1
100
AcDbCircle
 62
7
  6
CONTINUOUS
 10
88.7091733445
 20
37.9711286982
 40
3.1863978664
100
AcDbArc
 50
343.4436745835
 51
347.0295662622
  0
ARC
  5
344
100
AcDbEntity
  8
00_COMPONENTS_1
100
AcDbCircle
 62
7
  6
CONTINUOUS
 10
88.5825032202
 20
37.9715557862
 40
3.1861292099
100
AcDbArc
 50
197.3055281284
 51
201.0803677891
  0
ARC
  5
345
100
AcDbEntity
  8
00_COMPONENTS_1
100
AcDbCircle
 62
7
  6
CONTINUOUS
 10
88.7239711318
 20
37.9669322742
 40
3.1710177966
100
AcDbArc
 50
342.7135140303
 51
343.4401637829
  0
ARC
  5
346
100
AcDbEntity
  8
00_COMPONENTS_1
100
AcDbCircle
 62
7
  6
CONTINUOUS
 10
88.5676887435
 20
37.9667841638
 40
3.1705659568
100
AcDbArc
 50
196.6308341608
 51
197.3028390812
  0
ARC
  5
347
100
AcDbEntity
  8
00_COMPONENTS_1
100
AcDbCircle
 62
7
  6
CONTINUOUS
 10
88.7210428021
 20
36.6626313104
 40
2.8004629934
100
AcDbArc
 50
165.9373628721
 51
14.0638735861
  0
ARC
  5
348
100
AcDbEntity
  8
00_COMPONENTS_1
100
AcDbCircle
 62
7
  6
CONTINUOUS
 10
88.3715304345
 20
36.7217253694
 40
2.6890126253
100
AcDbArc
 50
216.7901768682
 51
218.3650859859
  0
ARC
  5
349
100
AcDbEntity
  8
00_COMPONENTS_1
100
AcDbCircle
 62
7
  6
CONTINUOUS
 10
88.33635823
 20
36.6956759837
 40
2.6452449134
100
AcDbArc
 50
214.3637699142
 51
216.7945720194
  0
ARC
  5
34A
100
AcDbEntity
  8
00_COMPONENTS_1
100
AcDbCircle
 62
7
  6
CONTINUOUS
 10
88.1873929766
 20
36.5432645429
 40
2.4323582446
100
AcDbArc
 50
226.7577130432
 51
229.6159554843
  0
CIRCLE
  5
34B
100
AcDbEntity
  8
00_COMPONENTS_1
100
AcDbCircle
 62
7
  6
CONTINUOUS
 10
88.6460428021
 20
42.6437559489
 40
3.25
  0
ARC
  5
34C
100
AcDbEntity
  8
00_COMPONENTS_1
100
AcDbCircle
 62
7
  6
CONTINUOUS
 10
88.7149186046
 20
42.4762294723
 40
3.0357582717
100
AcDbArc
 50
306.8259815839
 51
317.4531813381
  0
ARC
  5
34D
100
AcDbEntity
  8
00_COMPONENTS_1
100
AcDbCircle
 62
7
  6
CONTINUOUS
 10
88.722185821
 20
42.4716796491
 40
3.0291127729
100
AcDbArc
 50
249.3627087543
 51
259.4595255077
  0
ARC
  5
34E
100
AcDbEntity
  8
00_COMPONENTS_1
100
AcDbCircle
 62
7
  6
CONTINUOUS
 10
88.7191946558
 20
42.4642907033
 40
3.023209819
100
AcDbArc
 50
100.3869782199
 51
179.9228583023
  0
ARC
  5
34F
100
AcDbEntity
  8
00_COMPONENTS_1
100
AcDbCircle
 62
7
  6
CONTINUOUS
 10
88.7228994947
 20
42.4642968171
 40
3.0232001965
100
AcDbArc
 50
0.0188338679
 51
79.4944571395
  0
ARC
  5
350
100
AcDbEntity
  8
00_COMPONENTS_1
100
AcDbCircle
 62
7
  6
CONTINUOUS
 10
88.7181484161
 20
42.4657765652
 40
3.0221192898
100
AcDbArc
 50
180.009214703
 51
239.8559809206
  0
CIRCLE
  5
351
100
AcDbEntity
  8
00_COMPONENTS_1
100
AcDbCircle
 62
7
  6
CONTINUOUS
 10
71.7010428021
 20
115.043755949
 40
4.5
  0
ARC
  5
352
100
AcDbEntity
  8
00_COMPONENTS_1
100
AcDbCircle
 62
7
  6
CONTINUOUS
 10
67.8217927844
 20
121.7233552369
 40
3.1
100
AcDbArc
 50
59.6862478214
 51
105.006621154
  0
ARC
  5
353
100
AcDbEntity
  8
00_COMPONENTS_1
100
AcDbCircle
 62
7
  6
CONTINUOUS
 10
71.4010428021
 20
115.3513349469
 40
2.5981038024
100
AcDbArc
 50
252.0662636261
 51
287.9337363739
  0
ARC
  5
354
100
AcDbEntity
  8
00_COMPONENTS_1
100
AcDbCircle
 62
7
  6
CONTINUOUS
 10
71.4010428021
 20
115.3513349469
 40
2.5981038024
100
AcDbArc
 50
72.0662636261
 51
107.9337363739
  0
ARC
  5
355
100
AcDbEntity
  8
00_COMPONENTS_1
100
AcDbCircle
 62
7
  6
CONTINUOUS
 10
71.7010428021
 20
142.343755949
 40
18.5
100
AcDbArc
 50
251.0753555839
 51
288.9246444161
  0
ARC
  5
356
100
AcDbEntity
  8
00_COMPONENTS_1
100
AcDbCircle
 62
7
  6
CONTINUOUS
 10
89.0056064694
 20
111.6910660198
 40
3.6271240053
100
AcDbArc
 50
132.6531528919
 51
144.6269146622
  0
ARC
  5
357
100
AcDbEntity
  8
00_COMPONENTS_1
100
AcDbCircle
 62
7
  6
CONTINUOUS
 10
88.3044803743
 20
111.7158688538
 40
3.6041073964
100
AcDbArc
 50
28.1832043239
 51
36.5723767764
  0
ARC
  5
358
100
AcDbEntity
  8
00_COMPONENTS_1
100
AcDbCircle
 62
7
  6
CONTINUOUS
 10
88.9734709331
 20
111.7142580386
 40
3.5874948899
100
AcDbArc
 50
144.6318267559
 51
147.0045839143
  0
ARC
  5
359
100
AcDbEntity
  8
00_COMPONENTS_1
100
AcDbCircle
 62
7
  6
CONTINUOUS
 10
88.9563683315
 20
111.7254900619
 40
3.5670340531
100
AcDbArc
 50
147.0063003602
 51
147.5523417473
  0
ARC
  5
35A
100
AcDbEntity
  8
00_COMPONENTS_1
100
AcDbCircle
 62
7
  6
CONTINUOUS
 10
88.3420584252
 20
111.7374717616
 40
3.5607818723
100
AcDbArc
 50
23.7945984448
 51
28.1623847606
  0
ARC
  5
35B
100
AcDbEntity
  8
00_COMPONENTS_1
100
AcDbCircle
 62
7
  6
CONTINUOUS
 10
88.3651654676
 20
111.7474444815
 40
3.535615403
100
AcDbArc
 50
18.4678962293
 51
23.7978027099
  0
ARC
  5
35C
100
AcDbEntity
  8
00_COMPONENTS_1
100
AcDbCircle
 62
7
  6
CONTINUOUS
 10
88.3650928206
 20
111.9790085351
 40
3.5354075377
100
AcDbArc
 50
17.2145230845
 51
25.8796425546
  0
ARC
  5
35D
100
AcDbEntity
  8
00_COMPONENTS_1
100
AcDbCircle
 62
7
  6
CONTINUOUS
 10
88.4103013241
 20
111.7628286743
 40
3.4879306963
100
AcDbArc
 50
15.5274268826
 51
18.4630651674
  0
ARC
  5
35E
100
AcDbEntity
  8
00_COMPONENTS_1
100
AcDbCircle
 62
7
  6
CONTINUOUS
 10
88.4144817529
 20
111.9948870931
 40
3.4835318443
100
AcDbArc
 50
14.498151872
 51
17.2054672137
  0
ARC
  5
35F
100
AcDbEntity
  8
00_COMPONENTS_1
100
AcDbCircle
 62
7
  6
CONTINUOUS
 10
88.4432561829
 20
112.002192454
 40
3.4538448297
100
AcDbArc
 50
10.5714322025
 51
14.5003236421
  0
CIRCLE
  5
360
100
AcDbEntity
  8
00_COMPONENTS_1
100
AcDbCircle
 62
7
  6
CONTINUOUS
 10
88.6460428021
 20
106.6437559489
 40
3.25
  0
ARC
  5
361
100
AcDbEntity
  8
00_COMPONENTS_1
100
AcDbCircle
 62
7
  6
CONTINUOUS
 10
88.60439025
 20
111.307165828
 40
3.2097255108
100
AcDbArc
 50
153.6219139829
 51
154.6370595437
  0
ARC
  5
362
100
AcDbEntity
  8
00_COMPONENTS_1
100
AcDbCircle
 62
7
  6
CONTINUOUS
 10
88.6000453741
 20
111.3091849675
 40
3.2049345267
100
AcDbArc
 50
154.6364050336
 51
158.8961208996
  0
ARC
  5
363
100
AcDbEntity
  8
00_COMPONENTS_1
100
AcDbCircle
 62
7
  6
CONTINUOUS
 10
88.6914269681
 20
111.3121785675
 40
3.204633193
100
AcDbArc
 50
11.7405740166
 51
12.5329653823
  0
ARC
  5
364
100
AcDbEntity
  8
00_COMPONENTS_1
100
AcDbCircle
 62
7
  6
CONTINUOUS
 10
88.694575629
 20
111.3128753955
 40
3.201408348
100
AcDbArc
 50
12.5330197892
 51
12.9724229837
  0
ARC
  5
365
100
AcDbEntity
  8
00_COMPONENTS_1
100
AcDbCircle
 62
7
  6
CONTINUOUS
 10
88.7037543395
 20
113.2356090466
 40
3.1922885006
100
AcDbArc
 50
334.1507521211
 51
359.9911624968
  0
ARC
  5
366
100
AcDbEntity
  8
00_COMPONENTS_1
100
AcDbCircle
 62
7
  6
CONTINUOUS
 10
88.5883312648
 20
113.2356090466
 40
3.1922885006
100
AcDbArc
 50
180.0088375034
 51
205.8492478785
  0
ARC
  5
367
100
AcDbEntity
  8
00_COMPONENTS_1
100
AcDbCircle
 62
7
  6
CONTINUOUS
 10
88.5869087487
 20
111.315306095
 40
3.1905355923
100
AcDbArc
 50
163.4455850089
 51
168.0129174698
  0
ARC
  5
368
100
AcDbEntity
  8
00_COMPONENTS_1
100
AcDbCircle
 62
7
  6
CONTINUOUS
 10
88.5829841804
 20
111.3157954333
 40
3.1866374776
100
AcDbArc
 50
158.8965531991
 51
162.7108248677
  0
ARC
  5
369
100
AcDbEntity
  8
00_COMPONENTS_1
100
AcDbCircle
 62
7
  6
CONTINUOUS
 10
88.7090858574
 20
111.3163653777
 40
3.1864850112
100
AcDbArc
 50
12.969840468
 51
16.6271984667
  0
ARC
  5
36A
100
AcDbEntity
  8
00_COMPONENTS_1
100
AcDbCircle
 62
7
  6
CONTINUOUS
 10
88.5681144731
 20
111.3205796235
 40
3.1710177973
100
AcDbArc
 50
162.7135140307
 51
163.4401637829
  0
ARC
  5
36B
100
AcDbEntity
  8
00_COMPONENTS_1
100
AcDbCircle
 62
7
  6
CONTINUOUS
 10
88.7243968602
 20
111.320727734
 40
3.1705659573
100
AcDbArc
 50
16.6308341609
 51
17.3028390808
  0
ARC
  5
36C
100
AcDbEntity
  8
00_COMPONENTS_1
100
AcDbCircle
 62
7
  6
CONTINUOUS
 10
88.7210428021
 20
112.6248805874
 40
2.8004629934
100
AcDbArc
 50
345.9356436743
 51
194.0621558999
  0
ARC
  5
36D
100
AcDbEntity
  8
00_COMPONENTS_1
100
AcDbCircle
 62
7
  6
CONTINUOUS
 10
88.3714447473
 20
112.5658533664
 40
2.6889039539
100
AcDbArc
 50
141.6376171294
 51
143.223793762
  0
ARC
  5
36E
100
AcDbEntity
  8
00_COMPONENTS_1
100
AcDbCircle
 62
7
  6
CONTINUOUS
 10
88.3431468329
 20
112.5869789638
 40
2.6535901832
100
AcDbArc
 50
143.2233505928
 51
145.6348610944
  0
ARC
  5
36F
100
AcDbEntity
  8
00_COMPONENTS_1
100
AcDbCircle
 62
7
  6
CONTINUOUS
 10
88.2988083944
 20
112.6278808296
 40
2.5934558487
100
AcDbArc
 50
133.2557543625
 51
141.7161618895
  0
ARC
  5
370
100
AcDbEntity
  8
00_COMPONENTS_1
100
AcDbCircle
 62
7
  6
CONTINUOUS
 10
88.1724897063
 20
112.7609133288
 40
2.4100074822
100
AcDbArc
 50
130.3513166844
 51
133.2358593414
  0
ARC
  5
371
100
AcDbEntity
  8
00_COMPONENTS_1
100
AcDbCircle
 62
7
  6
CONTINUOUS
 10
88.0978817389
 20
112.84891621
 40
2.2946348668
100
AcDbArc
 50
126.089894817
 51
130.3543520508
  0
ARC
  5
372
100
AcDbEntity
  8
00_COMPONENTS_1
100
AcDbCircle
 62
7
  6
CONTINUOUS
 10
86.656632974
 20
132.6966146804
 40
4.9944098281
100
AcDbArc
 50
0.0
 51
88.7994009412
  0
SPLINE
  5
373
100
AcDbEntity
  8
00_COMPONENTS_1
100
AcDbSpline
 62
7
  6
CONTINUOUS
 70
0
 71
3
 72
9
 73
5
 74
0
 42
0.0000001
 43
0.0000001
 44
0.0000000001
 40
0.0
 40
0.0
 40
0.0
 40
0.0
 40
0.8389710638
 40
1.0
 40
1.0
 40
1.0
 40
1.0
 10
91.7460412408
 20
42.4622196056
 30
0.0
 10
91.7456857603
 20
42.1126277563
 30
0.0
 10
91.6721810886
 20
41.6960696129
 30
0.0
 10
91.5167921027
 20
41.3091739947
 30
0.0
 10
91.4897212259
 20
41.2477715508
 30
0.0
  0
SPLINE
  5
374
100
AcDbEntity
  8
00_COMPONENTS_1
100
AcDbSpline
 62
7
  6
CONTINUOUS
 70
0
 71
3
 72
9
 73
5
 74
0
 42
0.0000001
 43
0.0000001
 44
0.0000000001
 40
0.0
 40
0.0
 40
0.0
 40
0.0
 40
0.2474153157
 40
1.0
 40
1.0
 40
1.0
 40
1.0
 10
90.5345115547
 20
40.0462274599
 30
0.0
 10
90.44247006
 20
39.9773008842
 30
0.0
 10
90.0546283668
 20
39.719858552
 30
0.0
 10
89.6121953338
 20
39.5558061433
 30
0.0
 10
89.2680906578
 20
39.4925856923
 30
0.0
  0
SPLINE
  5
375
100
AcDbEntity
  8
00_COMPONENTS_1
100
AcDbSpline
 62
7
  6
CONTINUOUS
 70
0
 71
3
 72
11
 73
7
 74
0
 42
0.0000001
 43
0.0000001
 44
0.0000000001
 40
0.0
 40
0.0
 40
0.0
 40
0.0
 40
0.2499055875
 40
0.499800868
 40
0.7496961486
 40
1.0
 40
1.0
 40
1.0
 40
1.0
 10
16.9457468087
 20
15.6899971045
 30
0.0
 10
17.0568220934
 20
15.1319542569
 30
0.0
 10
17.4743990879
 20
14.0543127668
 30
0.0
 10
18.6137501631
 20
12.7419366277
 30
0.0
 10
20.1334212491
 20
11.8870768879
 30
0.0
 10
21.2813122713
 20
11.6896352185
 30
0.0
 10
21.8557501274
 20
11.6899586648
 30
0.0
  0
SPLINE
  5
376
100
AcDbEntity
  8
00_COMPONENTS_1
100
AcDbSpline
 62
7
  6
CONTINUOUS
 70
0
 71
3
 72
11
 73
7
 74
0
 42
0.0000001
 43
0.0000001
 44
0.0000000001
 40
0.0
 40
0.0
 40
0.0
 40
0.0
 40
0.2502663203
 40
0.5001745364
 40
0.7500827525
 40
1.0
 40
1.0
 40
1.0
 40
1.0
 10
86.6485783575
 20
11.6899577622
 30
0.0
 10
87.2226828196
 20
11.6896742176
 30
0.0
 10
88.370009752
 20
11.8871333926
 30
0.0
 10
89.8890031491
 20
12.7419356866
 30
0.0
 10
91.0279208343
 20
14.0543099729
 30
0.0
 10
91.4453394491
 20
15.1319485646
 30
0.0
 10
91.5563730549
 20
15.6899885556
 30
0.0
  0
SPLINE
  5
377
100
AcDbEntity
  8
00_COMPONENTS_1
100
AcDbSpline
 62
7
  6
CONTINUOUS
 70
0
 71
3
 72
10
 73
6
 74
0
 42
0.0000001
 43
0.0000001
 44
0.0000000001
 40
0.0
 40
0.0
 40
0.0
 40
0.0
 40
0.1492250367
 40
0.3682255316
 40
1.0
 40
1.0
 40
1.0
 40
1.0
 10
85.9462182499
 20
35.6043615454
 30
0.0
 10
85.9462182499
 20
35.5972509231
 30
0.0
 10
85.9497248461
 20
35.5798439293
 30
0.0
 10
85.9644473255
 20
35.5345906075
 30
0.0
 10
85.9813787408
 20
35.4975617816
 30
0.0
 10
85.994540874
 20
35.4704873503
 30
0.0
  0
SPLINE
  5
378
100
AcDbEntity
  8
00_COMPONENTS_1
100
AcDbSpline
 62
7
  6
CONTINUOUS
 70
0
 71
3
 72
9
 73
5
 74
0
 42
0.0000001
 43
0.0000001
 44
0.0000000001
 40
0.0
 40
0.0
 40
0.0
 40
0.0
 40
0.2140160186
 40
1.0
 40
1.0
 40
1.0
 40
1.0
 10
86.0029582704
 20
35.4534630512
 30
0.0
 10
86.0123218401
 20
35.4348287207
 30
0.0
 10
86.0578546215
 20
35.3486600314
 30
0.0
 10
86.1095579808
 20
35.2658042581
 30
0.0
 10
86.1527863736
 20
35.2025803404
 30
0.0
  0
SPLINE
  5
379
100
AcDbEntity
  8
00_COMPONENTS_1
100
AcDbSpline
 62
7
  6
CONTINUOUS
 70
0
 71
3
 72
9
 73
5
 74
0
 42
0.0000001
 43
0.0000001
 44
0.0000000001
 40
0.0
 40
0.0
 40
0.0
 40
0.0
 40
0.233441655
 40
1.0
 40
1.0
 40
1.0
 40
1.0
 10
86.2631514188
 20
35.0527356074
 30
0.0
 10
86.2815920527
 20
35.0294390283
 30
0.0
 10
86.3622275561
 20
34.9309600476
 30
0.0
 10
86.4499415679
 20
34.8382143307
 30
0.0
 10
86.5210209934
 20
34.7713810695
 30
0.0
  0
SPLINE
  5
37A
100
AcDbEntity
  8
00_COMPONENTS_1
100
AcDbSpline
 62
7
  6
CONTINUOUS
 70
0
 71
3
 72
21
 73
17
 74
0
 42
0.0000001
 43
0.0000001
 44
0.0000000001
 40
0.0
 40
0.0
 40
0.0
 40
0.0
 40
0.0622432647
 40
0.1246078168
 40
0.1869983348
 40
0.2495106537
 40
0.3121423582
 40
0.3748837594
 40
0.4999913022
 40
0.6250981408
 40
0.687840988
 40
0.7504758171
 40
0.8129921356
 40
0.8753873621
 40
0.9377558914
 40
1.0
 40
1.0
 40
1.0
 40
1.0
 10
91.8960428021
 20
113.2351166568
 30
0.0
 10
91.8960428021
 20
113.4453337141
 30
0.0
 10
91.853918585
 20
113.8673340715
 30
0.0
 10
91.6679312113
 20
114.4750079163
 30
0.0
 10
91.3653612511
 20
115.0351758087
 30
0.0
 10
90.9585348937
 20
115.5258795431
 30
0.0
 10
90.4626652943
 20
115.92856186
 30
0.0
 10
89.7111574445
 20
116.3267768688
 30
0.0
 10
88.6461376712
 20
116.5377238252
 30
0.0
 10
87.5810998328
 20
116.3268400318
 30
0.0
 10
86.8295598855
 20
115.9286541863
 30
0.0
 10
86.3336580099
 20
115.5259670171
 30
0.0
 10
85.9267717392
 20
115.0352602736
 30
0.0
 10
85.6241754867
 20
114.4750554623
 30
0.0
 10
85.4381714604
 20
113.8673533306
 30
0.0
 10
85.3960428021
 20
113.4453365643
 30
0.0
 10
85.3960428021
 20
113.2351166568
 30
0.0
  0
SPLINE
  5
37B
100
AcDbEntity
  8
00_COMPONENTS_1
100
AcDbSpline
 62
7
  6
CONTINUOUS
 70
0
 71
3
 72
21
 73
17
 74
0
 42
0.0000001
 43
0.0000001
 44
0.0000000001
 40
0.0
 40
0.0
 40
0.0
 40
0.0
 40
0.0622432647
 40
0.1246078168
 40
0.1869983348
 40
0.2495106537
 40
0.3121423582
 40
0.3748837594
 40
0.4999913022
 40
0.6250981408
 40
0.687840988
 40
0.7504758171
 40
0.8129921356
 40
0.8753873621
 40
0.9377558914
 40
1.0
 40
1.0
 40
1.0
 40
1.0
 10
85.3960428021
 20
36.0523952411
 30
0.0
 10
85.3960428021
 20
35.8421781838
 30
0.0
 10
85.4381670192
 20
35.4201778263
 30
0.0
 10
85.6241543929
 20
34.8125039816
 30
0.0
 10
85.9267243531
 20
34.2523360891
 30
0.0
 10
86.3335507106
 20
33.7616323547
 30
0.0
 10
86.82942031
 20
33.3589500378
 30
0.0
 10
87.5809281598
 20
32.960735029
 30
0.0
 10
88.6459479331
 20
32.7497880726
 30
0.0
 10
89.7109857714
 20
32.960671866
 30
0.0
 10
90.4625257187
 20
33.3588577116
 30
0.0
 10
90.9584275943
 20
33.7615448807
 30
0.0
 10
91.3653138651
 20
34.2522516242
 30
0.0
 10
91.6679101175
 20
34.8124564355
 30
0.0
 10
91.8539141439
 20
35.4201585672
 30
0.0
 10
91.8960428021
 20
35.8421753335
 30
0.0
 10
91.8960428021
 20
36.0523952411
 30
0.0
  0
SPLINE
  5
37C
100
AcDbEntity
  8
00_COMPONENTS_1
100
AcDbSpline
 62
7
  6
CONTINUOUS
 70
0
 71
3
 72
9
 73
5
 74
0
 42
0.0000001
 43
0.0000001
 44
0.0000000001
 40
0.0
 40
0.0
 40
0.0
 40
0.0
 40
0.2880464363
 40
1.0
 40
1.0
 40
1.0
 40
1.0
 10
86.1527219901
 20
114.0848373912
 30
0.0
 10
86.1358582032
 20
114.0601708542
 30
0.0
 10
86.0788440896
 20
113.9735224254
 30
0.0
 10
86.026824462
 20
113.8834333872
 30
0.0
 10
85.994534927
 20
113.8170123138
 30
0.0
  0
SPLINE
  5
37D
100
AcDbEntity
  8
00_COMPONENTS_1
100
AcDbSpline
 62
7
  6
CONTINUOUS
 70
0
 71
3
 72
10
 73
6
 74
0
 42
0.0000001
 43
0.0000001
 44
0.0000000001
 40
0.0
 40
0.0
 40
0.0
 40
0.0
 40
0.6317712802
 40
0.8507722877
 40
1.0
 40
1.0
 40
1.0
 40
1.0
 10
85.994534927
 20
113.8170123138
 30
0.0
 10
85.9813743821
 20
113.7899404616
 30
0.0
 10
85.9644449979
 20
113.7529151145
 30
0.0
 10
85.9497243492
 20
113.7076659371
 30
0.0
 10
85.9462182499
 20
113.6902604261
 30
0.0
 10
85.9462182499
 20
113.6831503524
 30
0.0
  0
ELLIPSE
  5
37E
100
AcDbEntity
  8
00_COMPONENTS_1
100
AcDbEllipse
 62
7
  6
CONTINUOUS
 10
88.7210428022
 20
42.3594225585
 30
0.0
 11
-2.4867885554
 21
0.0
 31
0.0
 40
0.9991868289
 41
2.8739618093
 42
3.3686695631
  0
ELLIPSE
  5
37F
100
AcDbEntity
  8
00_COMPONENTS_1
100
AcDbEllipse
 62
7
  6
CONTINUOUS
 10
88.7210428022
 20
42.3594225585
 30
0.0
 11
-2.4867885554
 21
0.0
 31
0.0
 40
0.9991868289
 41
-0.2674860595
 42
0.2272202
  0
ELLIPSE
  5
380
100
AcDbEntity
  8
00_COMPONENTS_1
100
AcDbEllipse
 62
7
  6
CONTINUOUS
 10
88.7210428021
 20
42.4652905464
 30
0.0
 11
3.025
 21
0.0
 31
0.0
 40
0.9991868289
 41
1.3869259077
 42
1.7525961042
  0
ELLIPSE
  5
381
100
AcDbEntity
  8
00_COMPONENTS_1
100
AcDbEllipse
 62
7
  6
CONTINUOUS
 10
88.7210428021
 20
42.4652905464
 30
0.0
 11
3.025
 21
-0.0
 31
0.0
 40
0.9991868289
 41
-1.7546274174
 42
-1.3889570745
  0
ELLIPSE
  5
382
100
AcDbEntity
  8
00_COMPONENTS_1
100
AcDbEllipse
 62
7
  6
CONTINUOUS
 10
88.7210428021
 20
106.8222213514
 30
0.0
 11
3.025
 21
-0.0
 31
0.0
 40
0.9991868289
 41
2.0962411242
 42
3.1415926479
  0
ELLIPSE
  5
383
100
AcDbEntity
  8
00_COMPONENTS_1
100
AcDbEllipse
 62
7
  6
CONTINUOUS
 10
88.7210428022
 20
106.9280893393
 30
0.0
 11
-2.4867885554
 21
0.0
 31
0.0
 40
0.9991868289
 41
-0.2272202
 42
0.2674860595
  0
ELLIPSE
  5
384
100
AcDbEntity
  8
00_COMPONENTS_1
100
AcDbEllipse
 62
7
  6
CONTINUOUS
 10
88.7210428021
 20
106.8222213514
 30
0.0
 11
3.025
 21
0.0
 31
0.0
 40
0.9991868289
 41
1.3889570745
 42
1.9209227579
  0
ELLIPSE
  5
385
100
AcDbEntity
  8
00_COMPONENTS_1
100
AcDbEllipse
 62
7
  6
CONTINUOUS
 10
88.7210428021
 20
106.8222213514
 30
0.0
 11
3.025
 21
-0.0
 31
0.0
 40
0.9991868289
 41
0.7280089894
 42
0.9194249916
  0
ELLIPSE
  5
386
100
AcDbEntity
  8
00_COMPONENTS_1
100
AcDbEllipse
 62
7
  6
CONTINUOUS
 10
88.7210428021
 20
106.8222213514
 30
0.0
 11
3.025
 21
0.0
 31
0.0
 40
0.9991868289
 41
0.0010160132
 42
0.4170537695
  0
ELLIPSE
  5
387
100
AcDbEntity
  8
00_COMPONENTS_1
100
AcDbEllipse
 62
7
  6
CONTINUOUS
 10
88.7210428021
 20
106.8222213514
 30
0.0
 11
3.025
 21
0.0
 31
0.0
 40
0.9991868289
 41
3.1426085073
 42
6.2831853015
  0
ELLIPSE
  5
388
100
AcDbEntity
  8
00_COMPONENTS_1
100
AcDbEllipse
 62
7
  6
CONTINUOUS
 10
88.7210428022
 20
106.9280893393
 30
0.0
 11
-2.4867885554
 21
0.0
 31
0.0
 40
0.9991868289
 41
2.9145157441
 42
3.4092234979
  0
ELLIPSE
  5
389
100
AcDbEntity
  8
00_COMPONENTS_1
100
AcDbEllipse
 62
7
  6
CONTINUOUS
 10
71.4010428021
 20
115.3513349469
 30
0.0
 11
-2.6
 21
-0.0
 31
0.0
 40
0.9991943951
 41
1.8835797239
 42
4.3996055833
  0
ELLIPSE
  5
38A
100
AcDbEntity
  8
00_COMPONENTS_1
100
AcDbEllipse
 62
7
  6
CONTINUOUS
 10
71.4010428021
 20
115.3513349469
 30
0.0
 11
-2.6
 21
-0.0
 31
0.0
 40
0.9991943951
 41
-1.2580129297
 42
1.2580129297
  0
ELLIPSE
  5
38B
100
AcDbEntity
  8
00_COMPONENTS_1
100
AcDbEllipse
 62
7
  6
CONTINUOUS
 10
71.4010428021
 20
33.936176951
 30
0.0
 11
-2.6
 21
0.0
 31
0.0
 40
0.9991943951
 41
-1.2580129297
 42
1.2580129297
  0
ELLIPSE
  5
38C
100
AcDbEntity
  8
00_COMPONENTS_1
100
AcDbEllipse
 62
7
  6
CONTINUOUS
 10
71.4010428021
 20
33.936176951
 30
0.0
 11
-2.6
 21
0.0
 31
0.0
 40
0.9991943951
 41
1.8835797238
 42
4.3996055833
  0
ELLIPSE
  5
38D
100
AcDbEntity
  8
00_COMPONENTS_1
100
AcDbEllipse
 62
7
  6
CONTINUOUS
 10
47.9010428021
 20
115.3513349469
 30
0.0
 11
-2.6
 21
-0.0
 31
0.0
 40
0.9991943951
 41
1.8835797239
 42
4.3996055833
  0
ELLIPSE
  5
38E
100
AcDbEntity
  8
00_COMPONENTS_1
100
AcDbEllipse
 62
7
  6
CONTINUOUS
 10
47.9010428021
 20
115.3513349469
 30
0.0
 11
-2.6
 21
-0.0
 31
0.0
 40
0.9991943951
 41
-1.2580129297
 42
1.2580129297
  0
ELLIPSE
  5
38F
100
AcDbEntity
  8
00_COMPONENTS_1
100
AcDbEllipse
 62
7
  6
CONTINUOUS
 10
24.4010428021
 20
33.936176951
 30
0.0
 11
-2.6
 21
0.0
 31
0.0
 40
0.9991943951
 41
-1.2580129297
 42
1.2580129297
  0
ELLIPSE
  5
390
100
AcDbEntity
  8
00_COMPONENTS_1
100
AcDbEllipse
 62
7
  6
CONTINUOUS
 10
24.4010428021
 20
33.936176951
 30
0.0
 11
-2.6
 21
0.0
 31
0.0
 40
0.9991943951
 41
1.8835797238
 42
4.3996055833
  0
ELLIPSE
  5
391
100
AcDbEntity
  8
00_COMPONENTS_1
100
AcDbEllipse
 62
7
  6
CONTINUOUS
 10
47.9010428021
 20
33.936176951
 30
0.0
 11
-2.6
 21
0.0
 31
0.0
 40
0.9991943951
 41
-1.2580129297
 42
1.2580129297
  0
ELLIPSE
  5
392
100
AcDbEntity
  8
00_COMPONENTS_1
100
AcDbEllipse
 62
7
  6
CONTINUOUS
 10
47.9010428021
 20
33.936176951
 30
0.0
 11
-2.6
 21
0.0
 31
0.0
 40
0.9991943951
 41
1.8835797238
 42
4.3996055833
  0
ELLIPSE
  5
393
100
AcDbEntity
  8
00_COMPONENTS_1
100
AcDbEllipse
 62
7
  6
CONTINUOUS
 10
24.4010428021
 20
115.3513349469
 30
0.0
 11
-2.6
 21
-0.0
 31
0.0
 40
0.9991943951
 41
1.8835797239
 42
4.3996055833
  0
ELLIPSE
  5
394
100
AcDbEntity
  8
00_COMPONENTS_1
100
AcDbEllipse
 62
7
  6
CONTINUOUS
 10
24.4010428021
 20
115.3513349469
 30
0.0
 11
-2.6
 21
-0.0
 31
0.0
 40
0.9991943951
 41
-1.2580129298
 42
1.2580129297
  0
ELLIPSE
  5
395
100
AcDbEntity
  8
00_COMPONENTS_1
100
AcDbEllipse
 62
7
  6
CONTINUOUS
 10
83.5407703927
 20
121.3610399344
 30
0.0
 11
3.025
 21
0.0
 31
0.0
 40
0.9900663215
 41
0.1909121993
 42
1.2933078658
  0
ELLIPSE
  5
396
100
AcDbEntity
  8
00_COMPONENTS_1
100
AcDbEllipse
 62
7
  6
CONTINUOUS
 10
83.5407703928
 20
121.730217942
 30
0.0
 11
-2.4867885554
 21
0.0
 31
0.0
 40
0.9900663215
 41
9.1960817904
 42
9.6907914271
  0
ELLIPSE
  5
397
100
AcDbEntity
  8
00_COMPONENTS_1
100
AcDbEllipse
 62
7
  6
CONTINUOUS
 10
88.7210428022
 20
112.6751010821
 30
0.0
 11
-2.4867885554
 21
0.0
 31
0.0
 40
0.9902680687
 41
-0.2291150546
 42
0.2655893796
  0
ELLIPSE
  5
398
100
AcDbEntity
  8
00_COMPONENTS_1
100
AcDbEllipse
 62
7
  6
CONTINUOUS
 10
88.7210428022
 20
112.6751010821
 30
0.0
 11
-2.4867885554
 21
0.0
 31
0.0
 40
0.9902680687
 41
2.9129766654
 42
3.4076862753
  0
ELLIPSE
  5
399
100
AcDbEntity
  8
00_COMPONENTS_1
100
AcDbEllipse
 62
7
  6
CONTINUOUS
 10
88.6460428021
 20
112.8990152633
 30
0.0
 11
0.0
 21
3.2819396107
 31
0.0
 40
0.9902680687
 41
-1.5353093732
 42
1.5344755658
  0
ELLIPSE
  5
39A
100
AcDbEntity
  8
00_COMPONENTS_1
100
AcDbEllipse
 62
7
  6
CONTINUOUS
 10
88.6460428021
 20
111.5238068117
 30
0.0
 11
0.0
 21
3.2819396107
 31
0.0
 40
0.9902680687
 41
0.9412225912
 42
0.9791076844
  0
ELLIPSE
  5
39B
100
AcDbEntity
  8
00_COMPONENTS_1
100
AcDbEllipse
 62
7
  6
CONTINUOUS
 10
88.6460428021
 20
111.5238068117
 30
0.0
 11
0.0
 21
3.2819396107
 31
0.0
 40
0.9902680687
 41
-1.2854708137
 42
-1.0819245994
  0
ELLIPSE
  5
39C
100
AcDbEntity
  8
00_COMPONENTS_1
100
AcDbEllipse
 62
7
  6
CONTINUOUS
 10
88.6460428021
 20
112.0417161716
 30
0.0
 11
0.0
 21
3.2819396107
 31
0.0
 40
0.9902680687
 41
0.2717733107
 42
0.9791076844
  0
ELLIPSE
  5
39D
100
AcDbEntity
  8
00_COMPONENTS_1
100
AcDbEllipse
 62
7
  6
CONTINUOUS
 10
88.6460428021
 20
112.0417161716
 30
0.0
 11
-0.0
 21
3.2819396107
 31
0.0
 40
0.9902680687
 41
-1.3961743723
 42
-0.6988911345
  0
ELLIPSE
  5
39E
100
AcDbEntity
  8
00_COMPONENTS_1
100
AcDbEllipse
 62
7
  6
CONTINUOUS
 10
45.5010428021
 20
124.2848278717
 30
0.0
 11
3.25
 21
-0.0
 31
0.0
 40
0.9902680687
 41
6.2831853072
 42
9.2544613982
  0
ELLIPSE
  5
39F
100
AcDbEntity
  8
00_COMPONENTS_1
100
AcDbEllipse
 62
7
  6
CONTINUOUS
 10
83.5260428021
 20
124.2848278717
 30
0.0
 11
3.25
 21
0.0
 31
0.0
 40
0.9902680687
 41
-0.0
 42
1.3069486106
  0
ELLIPSE
  5
3A0
100
AcDbEntity
  8
00_COMPONENTS_1
100
AcDbEllipse
 62
7
  6
CONTINUOUS
 10
83.5260428021
 20
123.1757276347
 30
0.0
 11
3.25
 21
-0.0
 31
0.0
 40
0.9902680687
 41
-1.3065521094
 42
-0.0
  0
ELLIPSE
  5
3A1
100
AcDbEntity
  8
00_COMPONENTS_1
100
AcDbEllipse
 62
7
  6
CONTINUOUS
 10
83.5407703927
 20
28.0188161808
 30
0.0
 11
3.025
 21
-0.0
 31
0.0
 40
0.9900663215
 41
4.9894792784
 42
6.4974404727
  0
ELLIPSE
  5
3A2
100
AcDbEntity
  8
00_COMPONENTS_1
100
AcDbEllipse
 62
7
  6
CONTINUOUS
 10
83.5407703927
 20
27.6496381732
 30
0.0
 11
2.4867885554
 21
0.0
 31
0.0
 40
0.9900663215
 41
-0.2660128774
 42
0.2286954397
  0
ELLIPSE
  5
3A3
100
AcDbEntity
  8
00_COMPONENTS_1
100
AcDbEllipse
 62
7
  6
CONTINUOUS
 10
83.4760428021
 20
27.4156712167
 30
0.0
 11
3.25
 21
0.0
 31
0.0
 40
0.9902680687
 41
-0.0
 42
1.2897466456
  0
ELLIPSE
  5
3A4
100
AcDbEntity
  8
00_COMPONENTS_1
100
AcDbEllipse
 62
7
  6
CONTINUOUS
 10
83.4760428021
 20
26.3065709797
 30
0.0
 11
3.25
 21
0.0
 31
0.0
 40
0.9902680687
 41
-1.2893636191
 42
-0.0
  0
ELLIPSE
  5
3A5
100
AcDbEntity
  8
00_COMPONENTS_1
100
AcDbEllipse
 62
7
  6
CONTINUOUS
 10
88.7210428022
 20
36.6124108158
 30
0.0
 11
-2.4867885554
 21
0.0
 31
0.0
 40
0.9902680687
 41
2.8754990318
 42
3.3702086417
  0
ELLIPSE
  5
3A6
100
AcDbEntity
  8
00_COMPONENTS_1
100
AcDbEllipse
 62
7
  6
CONTINUOUS
 10
88.7210428022
 20
36.6124108158
 30
0.0
 11
-2.4867885554
 21
0.0
 31
0.0
 40
0.9902680687
 41
-0.2655893796
 42
0.2291150546
  0
ELLIPSE
  5
3A7
100
AcDbEntity
  8
00_COMPONENTS_1
100
AcDbEllipse
 62
7
  6
CONTINUOUS
 10
88.6460428021
 20
37.2457957263
 30
0.0
 11
0.0
 21
-3.2819396107
 31
0.0
 40
0.9902680687
 41
-0.9791076844
 42
-0.2718468056
  0
ELLIPSE
  5
3A8
100
AcDbEntity
  8
00_COMPONENTS_1
100
AcDbEllipse
 62
7
  6
CONTINUOUS
 10
88.6460428021
 20
37.2457957263
 30
0.0
 11
0.0
 21
-3.2819396107
 31
0.0
 40
0.9902680687
 41
6.9820897132
 42
7.6793570817
  0
ELLIPSE
  5
3A9
100
AcDbEntity
  8
00_COMPONENTS_1
100
AcDbEllipse
 62
7
  6
CONTINUOUS
 10
88.6460428021
 20
37.7637050862
 30
0.0
 11
0.0
 21
3.2819396107
 31
0.0
 40
0.9902680687
 41
2.1624849692
 42
2.2003755634
  0
ELLIPSE
  5
3AA
100
AcDbEntity
  8
00_COMPONENTS_1
100
AcDbEllipse
 62
7
  6
CONTINUOUS
 10
88.6460428021
 20
37.7637050862
 30
0.0
 11
0.0
 21
3.2819396107
 31
0.0
 40
0.9902680687
 41
10.5066658281
 42
10.7105194659
  0
ELLIPSE
  5
3AB
100
AcDbEntity
  8
00_COMPONENTS_1
100
AcDbEllipse
 62
7
  6
CONTINUOUS
 10
88.6460428021
 20
36.3884966346
 30
0.0
 11
0.0
 21
-3.2819396107
 31
0.0
 40
0.9902680687
 41
4.7479012544
 42
7.8193476859
  0
ELLIPSE
  5
3AC
100
AcDbEntity
  8
00_COMPONENTS_1
100
AcDbEllipse
 62
7
  6
CONTINUOUS
 10
21.8529384042
 20
16.6507656536
 30
0.0
 11
5.0018956021
 21
0.0
 31
0.0
 40
0.9917855499
 41
-3.1415926536
 42
-2.9466750354
  0
ELLIPSE
  5
3AD
100
AcDbEntity
  8
00_COMPONENTS_1
100
AcDbEllipse
 62
7
  6
CONTINUOUS
 10
86.6510428021
 20
16.650765392
 30
0.0
 11
5.0
 21
0.0
 31
0.0
 40
0.9921616477
 41
-0.1949175462
 42
0.0
  0
ELLIPSE
  5
3AE
100
AcDbEntity
  8
00_COMPONENTS_1
100
AcDbEllipse
 62
7
  6
CONTINUOUS
 10
88.6460428021
 20
37.8782294824
 30
0.0
 11
0.0
 21
3.2819396107
 31
0.0
 40
0.9902680687
 41
2.1624849692
 42
2.1884256224
  0
ELLIPSE
  5
3AF
100
AcDbEntity
  8
00_COMPONENTS_1
100
AcDbEllipse
 62
7
  6
CONTINUOUS
 10
88.6460428021
 20
37.8782294824
 30
0.0
 11
0.0
 21
3.2819396107
 31
0.0
 40
0.9902680687
 41
10.4746944799
 42
10.6966173394
  0
ELLIPSE
  5
3B0
100
AcDbEntity
  8
00_COMPONENTS_1
100
AcDbEllipse
 62
7
  6
CONTINUOUS
 10
88.6460428021
 20
37.596697365
 30
0.0
 11
0.0
 21
-3.2819396107
 31
0.0
 40
0.9902680687
 41
5.3040776228
 42
5.3840377987
  0
ELLIPSE
  5
3B1
100
AcDbEntity
  8
00_COMPONENTS_1
100
AcDbEllipse
 62
7
  6
CONTINUOUS
 10
88.6460428021
 20
37.596697365
 30
0.0
 11
0.0
 21
-3.2819396107
 31
0.0
 40
0.9902680687
 41
7.2897734922
 42
7.6203319448
  0
ELLIPSE
  5
3B2
100
AcDbEntity
  8
00_COMPONENTS_1
100
AcDbEllipse
 62
7
  6
CONTINUOUS
 10
88.6460428021
 20
37.2471154849
 30
0.0
 11
0.0
 21
3.2819396107
 31
0.0
 40
0.9902680687
 41
-2.3292298183
 42
-2.0392279351
  0
ELLIPSE
  5
3B3
100
AcDbEntity
  8
00_COMPONENTS_1
100
AcDbEllipse
 62
7
  6
CONTINUOUS
 10
88.6460428021
 20
37.2471154849
 30
0.0
 11
0.0
 21
3.2819396107
 31
0.0
 40
0.9902680687
 41
-3.765932026
 42
-3.6184401091
  0
ELLIPSE
  5
3B4
100
AcDbEntity
  8
00_COMPONENTS_1
100
AcDbEllipse
 62
7
  6
CONTINUOUS
 10
88.6460428021
 20
36.669578304
 30
0.0
 11
0.0
 21
3.2819396107
 31
0.0
 40
0.9902680687
 41
7.9388024491
 42
10.9108362949
  0
ELLIPSE
  5
3B5
100
AcDbEntity
  8
00_COMPONENTS_1
100
AcDbEllipse
 62
7
  6
CONTINUOUS
 10
88.6460428021
 20
112.040396413
 30
0.0
 11
0.0
 21
3.2819396107
 31
0.0
 40
0.9902680687
 41
0.4931590283
 42
0.6243393724
  0
ELLIPSE
  5
3B6
100
AcDbEntity
  8
00_COMPONENTS_1
100
AcDbEllipse
 62
7
  6
CONTINUOUS
 10
88.6460428021
 20
112.040396413
 30
0.0
 11
0.0
 21
3.2819396107
 31
0.0
 40
0.9902680687
 41
-1.1023647185
 42
-0.8211610213
  0
ELLIPSE
  5
3B7
100
AcDbEntity
  8
00_COMPONENTS_1
100
AcDbEllipse
 62
7
  6
CONTINUOUS
 10
88.6460428021
 20
112.6179335939
 30
0.0
 11
0.0
 21
3.2819396107
 31
0.0
 40
0.9902680687
 41
-1.4861517142
 42
1.5053736102
  0
ELLIPSE
  5
3B8
100
AcDbEntity
  8
00_COMPONENTS_1
100
AcDbEllipse
 62
7
  6
CONTINUOUS
 10
88.6460428021
 20
111.4092824154
 30
0.0
 11
0.0
 21
3.2819396107
 31
0.0
 40
0.9902680687
 41
0.9531632237
 42
0.9791076844
  0
ELLIPSE
  5
3B9
100
AcDbEntity
  8
00_COMPONENTS_1
100
AcDbEllipse
 62
7
  6
CONTINUOUS
 10
88.6460428021
 20
111.4092824154
 30
0.0
 11
-0.0
 21
3.2819396107
 31
0.0
 40
0.9902680687
 41
-1.2730029761
 42
-1.0498773669
  0
ELLIPSE
  5
3BA
100
AcDbEntity
  8
00_COMPONENTS_1
100
AcDbEllipse
 62
7
  6
CONTINUOUS
 10
88.6460428021
 20
111.6908145328
 30
0.0
 11
0.0
 21
3.2819396107
 31
0.0
 40
0.9902680687
 41
0.8991363584
 42
0.9791076844
  0
ELLIPSE
  5
3BB
100
AcDbEntity
  8
00_COMPONENTS_1
100
AcDbEllipse
 62
7
  6
CONTINUOUS
 10
88.6460428021
 20
111.6908145328
 30
0.0
 11
0.0
 21
3.2819396107
 31
0.0
 40
0.9902680687
 41
-1.3370681455
 42
-1.0066183907
  0
ENDSEC
  0
SECTION
  2
OBJECTS
  0
DICTIONARY
  5
C
100
AcDbDictionary
280
0
281
1
  3
ACAD_GROUP
350
D
  3
ACAD_MLINESTYLE
350
17
  3
ACAD_LAYOUT
350
1A
  3
ACAD_PLOTSETTINGS
350
19
  3
ACAD_PLOTSTYLENAME
350
E
  0
DICTIONARY
  5
D
102
{ACAD_REACTORS
330
C
102
}
100
AcDbDictionary
280
0
281
1
  0
ACDBDICTIONARYWDFLT
  5
E
102
{ACAD_REACTORS
330
C
102
}
100
AcDbDictionary
281
1
  3
Normal
350
F
100
AcDbDictionaryWithDefault
340
F
  0
DICTIONARY
  5
17
102
{ACAD_REACTORS
330
C
102
}
100
AcDbDictionary
280
0
281
1
  3
Standard
350
18
  0
DICTIONARY
  5
19
102
{ACAD_REACTORS
330
C
102
}
100
AcDbDictionary
281
1
  0
DICTIONARY
  5
1A
102
{ACAD_REACTORS
330
C
102
}
100
AcDbDictionary
281
1
  3
Model
350
3BC
  3
Layout1
350
3BD
  0
ACDBPLACEHOLDER
  5
F
102
{ACAD_REACTORS
330
E
102
}
  0
MLINESTYLE
  5
18
102
{ACAD_REACTORS
330
17
102
}
100
AcDbMlineStyle
  2
STANDARD
 70
0
  3

 62
256
 51
90.0
 52
90.0
 71
2
 49
0.5
 62
256
  6
BYLAYER
 49
-0.5
 62
256
  6
BYLAYER
  0
LAYOUT
  5
3BC
102
{ACAD_REACTORS
330
1A
102
}
100
AcDbPlotSettings
  1

  2
none_device
  4

  6

 40
0.0
 41
0.0
 42
0.0
 43
0.0
 44
210.0
 45
297.0
 46
0.0
 47
0.0
 48
0.0
 49
0.0
140
0.0
141
0.0
142
1.0
143
1.0
 70
1024
 72
1
 73
0
 74
0
  7

 75
0
147
1.0
148
0.0
149
0.0
100
AcDbLayout
  1
Model
 70
0
 71
0
 10
0.0
 20
0.0
 11
210.0
 21
297.0
 12
0.0
 22
0.0
 32
0.0
 14
0.0
 24
0.0
 34
0.0
 15
0.0
 25
0.0
 35
0.0
146
0.0
 13
0.0
 23
0.0
 33
0.0
 16
1.0
 26
0.0
 36
0.0
 17
0.0
 27
1.0
 37
0.0
 76
0
330
211
345
0
346
0
  0
LAYOUT
  5
3BD
102
{ACAD_REACTORS
330
1A
102
}
100
AcDbPlotSettings
  1

  2
none_device
  4

  6

 40
0.0
 41
0.0
 42
0.0
 43
0.0
 44
210.0
 45
297.0
 46
0.0
 47
0.0
 48
0.0
 49
0.0
140
0.0
141
0.0
142
1.0
143
1.0
 70
0
 72
1
 73
0
 74
0
  7

 75
0
147
1.0
148
0.0
149
0.0
100
AcDbLayout
  1
Layout1
 70
0
 71
1
 10
0.0
 20
0.0
 11
210.0
 21
297.0
 12
0.0
 22
0.0
 32
0.0
 14
0.0
 24
0.0
 34
0.0
 15
0.0
 25
0.0
 35
0.0
146
0.0
 13
0.0
 23
0.0
 33
0.0
 16
1.0
 26
0.0
 36
0.0
 17
0.0
 27
1.0
 37
0.0
 76
0
330
212
345
0
346
0
  0
ENDSEC
  0
EOF
