999
DXF file: C:\Users\sesa63760\OneDrive - Schneider Electric\Documents\7-Dev\_Creo\CAD\MCADPP0000033_3D-CAD\drw0001_4.dxf
999
Pro/ENGINEER 2019471 by Parametric Technology Corporation
  0
SECTION
  2
HEADER
  9
$ACADVER
  1
AC1024
  9
$DWGCODEPAGE
  3
ANSI_1252
  9
$EXTMAX
 10
134.0210155221
 20
189.544007667
 30
0.0
  9
$EXTMIN
 10
0.0
 20
0.0
 30
0.0
  9
$LIMMIN
 10
0.0
 20
0.0
  9
$LIMMAX
 10
134.0210155221
 20
189.544007667
  9
$VIEWCTR
 10
67.0105077611
 20
94.7720038335
  9
$VIEWSIZE
 40
189.544007667
  9
$CLAYER
  8
0
  9
$LTSCALE
 40
12.3554612405
  9
$CELTYPE
  6
BYLAYER
  9
$DIMSCALE
 40
1.0
  9
$DIMASZ
 40
1.59548828
  9
$DIMEXO
 40
1.0
  9
$DIMDLI
 40
8.5365004934
  9
$DIMEXE
 40
1.0
  9
$DIMCEN
 40
2.0218027484
  9
$DIMLFAC
 40
1.0
  9
$DIMBLK
  1
_FILLED
  9
$DIMALT
 70
0
  9
$DIMALTF
 40
0.0393700787
  9
$DIMTXT
 40
2.233683592
  9
$DIMTOL
 70
1
  9
$DIMLIM
 70
0
  9
$DIMTFAC
 40
1.0
  9
$DIMTP
 40
0.01
  9
$DIMTM
 40
0.01
  9
$DIMGAP
 40
0.625
  9
$DIMDSEP
 70
46
  9
$AUNITS
 70
0
  9
$PDMODE
 70
3
  9
$PDSIZE
 40
0.3125
  9
$HANDSEED
  5
468
  9
$TILEMODE
 70
1
  9
$MEASUREMENT
 70
1
  9
$INSUNITS
 70
4
  0
ENDSEC
  0
SECTION
  2
CLASSES
  0
CLASS
  1
ACDBDICTIONARYWDFLT
  2
AcDbDictionaryWithDefault
  3
AutoCAD 2000
 90
0
 91
1
280
0
281
0
  0
CLASS
  1
ACDBPLACEHOLDER
  2
AcDbPlaceHolder
  3
AutoCAD 2000
 90
0
 91
1
280
0
281
0
  0
CLASS
  1
LAYOUT
  2
AcDbLayout
  3
AutoCAD 2000
 90
0
 91
0
280
0
281
0
  0
ENDSEC
  0
SECTION
  2
TABLES
  0
TABLE
  2
VPORT
  5
8
100
AcDbSymbolTable
 70
2
  0
VPORT
  5
1F4
100
AcDbSymbolTableRecord
100
AcDbViewportTableRecord
  2
*ACTIVE
 70
0
 10
0.0
 20
0.0
 11
1.0
 21
1.0
 12
67.0105077611
 22
94.7720038335
 13
0.0
 23
0.0
 14
1.0
 24
1.0
 15
0.0
 25
0.0
 16
0.0
 26
0.0
 36
1.0
 17
0.0
 27
0.0
 37
0.0
 40
189.544007667
 41
0.7070707071
 42
50.0
 43
0.0
 44
0.0
 50
0.0
 51
0.0
 71
0
 72
100
 73
1
 74
1
 75
0
 76
0
 77
0
 78
0
  0
ENDTAB
  0
TABLE
  2
LTYPE
  5
5
100
AcDbSymbolTable
 70
6
  0
LTYPE
  5
14
100
AcDbSymbolTableRecord
100
AcDbLinetypeTableRecord
  2
BYBLOCK
 70
0
  3

 72
65
 73
0
 40
0.0
  0
LTYPE
  5
15
100
AcDbSymbolTableRecord
100
AcDbLinetypeTableRecord
  2
BYLAYER
 70
0
  3

 72
65
 73
0
 40
0.0
  0
LTYPE
  5
16
100
AcDbSymbolTableRecord
100
AcDbLinetypeTableRecord
  2
CONTINUOUS
 70
64
  3
Solid line
 72
65
 73
0
 40
0.0
  0
LTYPE
  5
1F5
100
AcDbSymbolTableRecord
100
AcDbLinetypeTableRecord
  2
CENTER
 70
64
  3
____ _ ____ _ ____ _ ____ _ ____ _ ____ _ ____
 72
65
 73
4
 40
0.6
 49
0.375
 74
0
 49
-0.075
 74
0
 49
0.075
 74
0
 49
-0.075
 74
0
  0
LTYPE
  5
1F6
100
AcDbSymbolTableRecord
100
AcDbLinetypeTableRecord
  2
HIDDEN
 70
64
  3
- - - - - - - - - - - - - - - - - - - -
 72
65
 73
2
 40
0.2
 49
0.1
 74
0
 49
-0.1
 74
0
  0
LTYPE
  5
1F7
100
AcDbSymbolTableRecord
100
AcDbLinetypeTableRecord
  2
PHANTOM
 70
64
  3
_____ _ _ _____ _ _ _____ _ _ _____
 72
65
 73
6
 40
0.8
 49
0.45
 74
0
 49
-0.05
 74
0
 49
0.1
 74
0
 49
-0.05
 74
0
 49
0.1
 74
0
 49
-0.05
 74
0
  0
LTYPE
  5
1F8
100
AcDbSymbolTableRecord
100
AcDbLinetypeTableRecord
  2
DOT
 70
64
  3
. . . . . . . . . . . . . . . . . . . .
 72
65
 73
2
 40
0.2
 49
0.1
 74
0
 49
-0.1
 74
0
  0
LTYPE
  5
1F9
100
AcDbSymbolTableRecord
100
AcDbLinetypeTableRecord
  2
DASHED
 70
64
  3
- - - - - - - - - - - - - - - - - - - -
 72
65
 73
2
 40
0.2
 49
0.1
 74
0
 49
-0.1
 74
0
  0
ENDTAB
  0
TABLE
  2
LAYER
  5
2
100
AcDbSymbolTable
 70
36
  0
LAYER
  5
10
100
AcDbSymbolTableRecord
100
AcDbLayerTableRecord
  2
0
 70
0
 62
7
  6
CONTINUOUS
370
-3
390
F
  0
LAYER
  5
1FA
100
AcDbSymbolTableRecord
100
AcDbLayerTableRecord
  2
DEFAULT_1
 70
0
 62
7
  6
CENTER
370
-3
390
F
  0
LAYER
  5
1FB
100
AcDbSymbolTableRecord
100
AcDbLayerTableRecord
  2
DEFAULT_2
 70
0
 62
8
  6
HIDDEN
370
-3
390
F
  0
LAYER
  5
1FC
100
AcDbSymbolTableRecord
100
AcDbLayerTableRecord
  2
DEFAULT_3
 70
0
 62
7
  6
PHANTOM
370
-3
390
F
  0
LAYER
  5
1FD
100
AcDbSymbolTableRecord
100
AcDbLayerTableRecord
  2
00_COMPONENTS
 70
0
 62
7
  6
CONTINUOUS
370
-3
390
F
  0
LAYER
  5
1FE
100
AcDbSymbolTableRecord
100
AcDbLayerTableRecord
  2
01_1_DEFAULT_DATUMS
 70
0
 62
7
  6
CONTINUOUS
370
-3
390
F
  0
LAYER
  5
1FF
100
AcDbSymbolTableRecord
100
AcDbLayerTableRecord
  2
01_PLANES
 70
0
 62
7
  6
CONTINUOUS
370
-3
390
F
  0
LAYER
  5
200
100
AcDbSymbolTableRecord
100
AcDbLayerTableRecord
  2
02_COORD_SYS
 70
0
 62
7
  6
CONTINUOUS
370
-3
390
F
  0
LAYER
  5
201
100
AcDbSymbolTableRecord
100
AcDbLayerTableRecord
  2
03_AXES
 70
0
 62
7
  6
CONTINUOUS
370
-3
390
F
  0
LAYER
  5
202
100
AcDbSymbolTableRecord
100
AcDbLayerTableRecord
  2
04_POINTS
 70
0
 62
7
  6
CONTINUOUS
370
-3
390
F
  0
LAYER
  5
203
100
AcDbSymbolTableRecord
100
AcDbLayerTableRecord
  2
05_CURVES
 70
0
 62
7
  6
CONTINUOUS
370
-3
390
F
  0
LAYER
  5
204
100
AcDbSymbolTableRecord
100
AcDbLayerTableRecord
  2
06_SURFS
 70
0
 62
7
  6
CONTINUOUS
370
-3
390
F
  0
LAYER
  5
205
100
AcDbSymbolTableRecord
100
AcDbLayerTableRecord
  2
07_COSMETICS
 70
0
 62
7
  6
CONTINUOUS
370
-3
390
F
  0
LAYER
  5
206
100
AcDbSymbolTableRecord
100
AcDbLayerTableRecord
  2
10_NOTES
 70
0
 62
7
  6
CONTINUOUS
370
-3
390
F
  0
LAYER
  5
207
100
AcDbSymbolTableRecord
100
AcDbLayerTableRecord
  2
11_NOTES_PUB
 70
0
 62
7
  6
CONTINUOUS
370
-3
390
F
  0
LAYER
  5
208
100
AcDbSymbolTableRecord
100
AcDbLayerTableRecord
  2
13_REF_GTOL
 70
0
 62
7
  6
CONTINUOUS
370
-3
390
F
  0
LAYER
  5
209
100
AcDbSymbolTableRecord
100
AcDbLayerTableRecord
  2
16_MISC
 70
0
 62
7
  6
CONTINUOUS
370
-3
390
F
  0
LAYER
  5
20A
100
AcDbSymbolTableRecord
100
AcDbLayerTableRecord
  2
17_NO_PRINT
 70
0
 62
7
  6
CONTINUOUS
370
-3
390
F
  0
LAYER
  5
20B
100
AcDbSymbolTableRecord
100
AcDbLayerTableRecord
  2
18_DATUM_CAMS_JOINTS
 70
0
 62
7
  6
CONTINUOUS
370
-3
390
F
  0
LAYER
  5
20C
100
AcDbSymbolTableRecord
100
AcDbLayerTableRecord
  2
19_DATUM_FUNCTIONAL
 70
0
 62
7
  6
CONTINUOUS
370
-3
390
F
  0
LAYER
  5
20D
100
AcDbSymbolTableRecord
100
AcDbLayerTableRecord
  2
20_DATUM_KINEMATIC_SCHEME
 70
0
 62
7
  6
CONTINUOUS
370
-3
390
F
  0
ENDTAB
  0
TABLE
  2
STYLE
  5
3
100
AcDbSymbolTable
 70
1
  0
STYLE
  5
11
100
AcDbSymbolTableRecord
100
AcDbTextStyleTableRecord
  2
STANDARD
 70
0
 40
0.0
 41
0.8
 50
0.0
 71
0
 42
0.2
  3
txt
  4

  0
STYLE
  5
20E
100
AcDbSymbolTableRecord
100
AcDbTextStyleTableRecord
  2
TEXTSTYLE_1
 70
0
 40
0.0
 41
0.8
 50
0.0
 71
0
 42
0.2
  3
gdt
  4

  0
ENDTAB
  0
TABLE
  2
VIEW
  5
6
100
AcDbSymbolTable
 70
0
  0
ENDTAB
  0
TABLE
  2
UCS
  5
7
100
AcDbSymbolTable
 70
0
  0
ENDTAB
  0
TABLE
  2
APPID
  5
9
100
AcDbSymbolTable
 70
1
  0
APPID
  5
20F
100
AcDbSymbolTableRecord
100
AcDbRegAppTableRecord
  2
ACAD
 70
0
  0
ENDTAB
  0
TABLE
  2
BLOCK_RECORD
  5
1
100
AcDbSymbolTable
 70
0
  0
BLOCK_RECORD
  5
210
100
AcDbSymbolTableRecord
100
AcDbBlockTableRecord
  2
*Model_Space
  0
BLOCK_RECORD
  5
211
100
AcDbSymbolTableRecord
100
AcDbBlockTableRecord
  2
*Paper_Space
  0
BLOCK_RECORD
  5
212
100
AcDbSymbolTableRecord
100
AcDbBlockTableRecord
  2
_FILLED
  0
ENDTAB
  0
TABLE
  2
DIMSTYLE
  5
A
100
AcDbSymbolTable
 70
1
100
AcDbDimStyleTable
 71
0
  0
DIMSTYLE
105
213
100
AcDbSymbolTableRecord
100
AcDbDimStyleTableRecord
  2
STANDARD
 70
0
  3

  4

 40
1.0
 41
1.59548828
 42
1.0
 43
0.38
 44
1.0
 45
0.0
 46
0.0
 47
0.01
 48
0.01
140
2.233683592
141
0.09
142
0.0
143
25.4
144
1.0
145
0.0
146
1.0
147
0.625
 71
1
 72
0
 73
0
 74
0
 75
0
 76
0
 77
1
 78
8
 79
2
170
0
171
1
172
0
173
0
174
0
175
0
176
0
177
0
178
0
270
2
179
2
271
2
272
2
273
2
274
2
275
0
280
0
281
0
282
0
283
1
284
8
285
0
286
0
287
3
288
0
340
11
278
46
341
212
342
212
343
212
344
212
  0
ENDTAB
  0
ENDSEC
  0
SECTION
  2
BLOCKS
  0
BLOCK
  5
20
100
AcDbEntity
  8
0
100
AcDbBlockBegin
  2
*Model_Space
 70
0
 10
0.0
 20
0.0
 30
0.0
  3
*Model_Space
  1

  0
ENDBLK
  5
21
100
AcDbEntity
  8
0
100
AcDbBlockEnd
  0
BLOCK
  5
1C
100
AcDbEntity
  8
0
100
AcDbBlockBegin
  2
*Paper_Space
 70
0
 10
0.0
 20
0.0
 30
0.0
  3
*Paper_Space
  1

  0
ENDBLK
  5
1D
100
AcDbEntity
  8
0
100
AcDbBlockEnd
  0
BLOCK
  5
214
100
AcDbEntity
  8
0
100
AcDbBlockBegin
  2
_FILLED
 70
64
 10
0.0
 20
0.0
  3
_FILLED
  1

  0
SOLID
  5
215
100
AcDbEntity
  8
0
  6
BYBLOCK
 62
0
100
AcDbTrace
 10
0.0
 20
0.0
 11
-1.0
 21
0.25
 12
-1.0
 22
-0.25
 13
-1.0
 23
-0.25
  0
ENDBLK
  5
216
100
AcDbEntity
  8
0
  6
BYBLOCK
 62
0
100
AcDbBlockEnd
  0
ENDSEC
  0
SECTION
  2
ENTITIES
  0
LINE
  5
217
100
AcDbEntity
  8
0
100
AcDbLine
 62
7
  6
CONTINUOUS
 10
115.4293400164
 20
14.5876810297
 11
111.080884257
 21
13.6236515972
  0
LINE
  5
218
100
AcDbEntity
  8
0
100
AcDbLine
 62
7
  6
CONTINUOUS
 10
26.3949165479
 20
13.6236515973
 11
22.0464607886
 21
14.5876810297
  0
LINE
  5
219
100
AcDbEntity
  8
0
100
AcDbLine
 62
7
  6
CONTINUOUS
 10
17.4160111096
 20
159.0332920924
 11
17.469012088
 21
159.0510972564
  0
LINE
  5
21A
100
AcDbEntity
  8
0
100
AcDbLine
 62
7
  6
CONTINUOUS
 10
80.4293400164
 20
14.5876810297
 11
76.080884257
 21
13.6236515972
  0
LINE
  5
21B
100
AcDbEntity
  8
0
100
AcDbLine
 62
7
  6
CONTINUOUS
 10
111.0879004024
 20
13.5920038101
 11
96.3879004024
 21
13.5920038101
  0
LINE
  5
21C
100
AcDbEntity
  8
0
100
AcDbLine
 62
7
  6
CONTINUOUS
 10
76.0879004024
 20
13.5920038101
 11
61.3879004024
 21
13.5920038101
  0
LINE
  5
21D
100
AcDbEntity
  8
0
100
AcDbLine
 62
7
  6
CONTINUOUS
 10
41.0879004024
 20
13.5920038101
 11
26.3879004024
 21
13.5920038101
  0
LINE
  5
21E
100
AcDbEntity
  8
0
100
AcDbLine
 62
7
  6
CONTINUOUS
 10
119.5408420123
 20
14.5876810297
 11
115.4293400164
 21
14.5876810297
  0
LINE
  5
21F
100
AcDbEntity
  8
0
100
AcDbLine
 62
7
  6
CONTINUOUS
 10
92.0464607886
 20
14.5876810297
 11
87.4847465813
 21
14.5876810297
  0
LINE
  5
220
100
AcDbEntity
  8
0
100
AcDbLine
 62
7
  6
CONTINUOUS
 10
84.9589826927
 20
14.5876810297
 11
80.4293400164
 21
14.5876810297
  0
LINE
  5
221
100
AcDbEntity
  8
0
100
AcDbLine
 62
7
  6
CONTINUOUS
 10
57.0464607886
 20
14.5876810297
 11
52.500457568
 21
14.5876810297
  0
LINE
  5
222
100
AcDbEntity
  8
0
100
AcDbLine
 62
7
  6
CONTINUOUS
 10
49.9589826927
 20
14.5876810297
 11
45.4293400164
 21
14.5876810297
  0
LINE
  5
223
100
AcDbEntity
  8
0
100
AcDbLine
 62
7
  6
CONTINUOUS
 10
22.0464607886
 20
14.5876810297
 11
17.9849587925
 21
14.5876810297
  0
LINE
  5
224
100
AcDbEntity
  8
0
100
AcDbLine
 62
7
  6
CONTINUOUS
 10
20.9379004024
 20
14.8620038101
 11
46.5879004024
 21
14.8620038101
  0
LINE
  5
225
100
AcDbEntity
  8
0
100
AcDbLine
 62
7
  6
CONTINUOUS
 10
55.9379004024
 20
14.8620038101
 11
81.5879004024
 21
14.8620038101
  0
LINE
  5
226
100
AcDbEntity
  8
0
100
AcDbLine
 62
7
  6
CONTINUOUS
 10
90.9379004024
 20
14.8620038101
 11
116.5879004024
 21
14.8620038101
  0
LINE
  5
227
100
AcDbEntity
  8
0
100
AcDbLine
 62
7
  6
CONTINUOUS
 10
84.9852818103
 20
15.5920038103
 11
52.5035485626
 21
15.5920038103
  0
LINE
  5
228
100
AcDbEntity
  8
0
100
AcDbLine
 62
7
  6
CONTINUOUS
 10
17.9849587925
 20
15.5920038103
 11
49.9852818103
 21
15.5920038103
  0
LINE
  5
229
100
AcDbEntity
  8
0
100
AcDbLine
 62
7
  6
CONTINUOUS
 10
87.4865485623
 20
15.5920038103
 11
119.5408420123
 21
15.5920038103
  0
LINE
  5
22A
100
AcDbEntity
  8
0
100
AcDbLine
 62
7
  6
CONTINUOUS
 10
118.5515477463
 20
15.8920038479
 11
109.7379003499
 21
15.8920038173
  0
LINE
  5
22B
100
AcDbEntity
  8
0
100
AcDbLine
 62
7
  6
CONTINUOUS
 10
18.9329004024
 20
15.8920038103
 11
27.7379004024
 21
15.8920038103
  0
LINE
  5
22C
100
AcDbEntity
  8
0
100
AcDbLine
 62
7
  6
CONTINUOUS
 10
39.7379004024
 20
15.8920038103
 11
49.7035485629
 21
15.8920038103
  0
LINE
  5
22D
100
AcDbEntity
  8
0
100
AcDbLine
 62
7
  6
CONTINUOUS
 10
52.8035485626
 20
15.8920038103
 11
63.4379004024
 21
15.8920038103
  0
LINE
  5
22E
100
AcDbEntity
  8
0
100
AcDbLine
 62
7
  6
CONTINUOUS
 10
74.7379004024
 20
15.8920038103
 11
84.6865485626
 21
15.8920038103
  0
LINE
  5
22F
100
AcDbEntity
  8
0
100
AcDbLine
 62
7
  6
CONTINUOUS
 10
87.7865485623
 20
15.8920038103
 11
97.7379004024
 21
15.8920038103
  0
LINE
  5
230
100
AcDbEntity
  8
0
100
AcDbLine
 62
7
  6
CONTINUOUS
 10
28.5379004024
 20
15.9920038103
 11
38.9379004024
 21
15.9920038103
  0
LINE
  5
231
100
AcDbEntity
  8
0
100
AcDbLine
 62
7
  6
CONTINUOUS
 10
98.5379004024
 20
15.9920038103
 11
108.9379004024
 21
15.9920038103
  0
LINE
  5
232
100
AcDbEntity
  8
0
100
AcDbLine
 62
7
  6
CONTINUOUS
 10
108.7379004024
 20
16.3670038101
 11
98.7379004024
 21
16.3670038101
  0
LINE
  5
233
100
AcDbEntity
  8
0
100
AcDbLine
 62
7
  6
CONTINUOUS
 10
73.7379004024
 20
16.3670038101
 11
63.7379004024
 21
16.3670038101
  0
LINE
  5
234
100
AcDbEntity
  8
0
100
AcDbLine
 62
7
  6
CONTINUOUS
 10
38.7379004024
 20
16.3670038101
 11
28.7379004024
 21
16.3670038101
  0
LINE
  5
235
100
AcDbEntity
  8
0
100
AcDbLine
 62
7
  6
CONTINUOUS
 10
17.9795394933
 20
16.5920038103
 11
18.2329004024
 21
16.5920038103
  0
LINE
  5
236
100
AcDbEntity
  8
0
100
AcDbLine
 62
7
  6
CONTINUOUS
 10
28.4379004024
 20
16.5920038103
 11
28.7379004024
 21
16.5920038103
  0
LINE
  5
237
100
AcDbEntity
  8
0
100
AcDbLine
 62
7
  6
CONTINUOUS
 10
38.7379004024
 20
16.5920038103
 11
39.0379004024
 21
16.5920038103
  0
LINE
  5
238
100
AcDbEntity
  8
0
100
AcDbLine
 62
7
  6
CONTINUOUS
 10
73.7379004024
 20
16.5920038103
 11
74.0379004024
 21
16.5920038103
  0
LINE
  5
239
100
AcDbEntity
  8
0
100
AcDbLine
 62
7
  6
CONTINUOUS
 10
98.4379004026
 20
16.5920038103
 11
98.7379004024
 21
16.5920038103
  0
LINE
  5
23A
100
AcDbEntity
  8
0
100
AcDbLine
 62
7
  6
CONTINUOUS
 10
108.7379004024
 20
16.5920038103
 11
109.0379004023
 21
16.5920038103
  0
LINE
  5
23B
100
AcDbEntity
  8
0
100
AcDbLine
 62
7
  6
CONTINUOUS
 10
119.2515484985
 20
16.5920038101
 11
119.5461206846
 21
16.5920038101
  0
LINE
  5
23C
100
AcDbEntity
  8
0
100
AcDbLine
 62
7
  6
CONTINUOUS
 10
61.3949165479
 20
13.6236515973
 11
57.0464607886
 21
14.5876810297
  0
LINE
  5
23D
100
AcDbEntity
  8
0
100
AcDbLine
 62
7
  6
CONTINUOUS
 10
21.8379004024
 20
24.8920038101
 11
22.3379004024
 21
24.3920038101
  0
LINE
  5
23E
100
AcDbEntity
  8
0
100
AcDbLine
 62
7
  6
CONTINUOUS
 10
45.4293400164
 20
14.5876810297
 11
41.080884257
 21
13.6236515972
  0
LINE
  5
23F
100
AcDbEntity
  8
0
100
AcDbLine
 62
7
  6
CONTINUOUS
 10
87.4093426377
 20
18.6920038101
 11
85.0664581672
 21
18.6920038101
  0
LINE
  5
240
100
AcDbEntity
  8
0
100
AcDbLine
 62
7
  6
CONTINUOUS
 10
52.4093426377
 20
18.6920038101
 11
50.0664581672
 21
18.6920038101
  0
LINE
  5
241
100
AcDbEntity
  8
0
100
AcDbLine
 62
7
  6
CONTINUOUS
 10
50.1319229711
 20
21.1920038101
 11
52.3438778338
 21
21.1920038101
  0
LINE
  5
242
100
AcDbEntity
  8
0
100
AcDbLine
 62
7
  6
CONTINUOUS
 10
85.1319229711
 20
21.1920038101
 11
87.3438778338
 21
21.1920038101
  0
LINE
  5
243
100
AcDbEntity
  8
0
100
AcDbLine
 62
7
  6
CONTINUOUS
 10
17.4948214972
 20
21.8420038101
 11
17.367838674
 21
21.8420038101
  0
LINE
  5
244
100
AcDbEntity
  8
0
100
AcDbLine
 62
7
  6
CONTINUOUS
 10
120.0309793077
 20
21.8420038101
 11
120.117838674
 21
21.8420038101
  0
LINE
  5
245
100
AcDbEntity
  8
0
100
AcDbLine
 62
7
  6
CONTINUOUS
 10
109.0379004023
 20
24.1920038103
 11
108.7379004024
 21
24.1920038103
  0
LINE
  5
246
100
AcDbEntity
  8
0
100
AcDbLine
 62
7
  6
CONTINUOUS
 10
98.7379004024
 20
24.1920038103
 11
98.4379004026
 21
24.1920038103
  0
LINE
  5
247
100
AcDbEntity
  8
0
100
AcDbLine
 62
7
  6
CONTINUOUS
 10
74.0379004024
 20
24.1920038103
 11
73.7379004024
 21
24.1920038103
  0
LINE
  5
248
100
AcDbEntity
  8
0
100
AcDbLine
 62
7
  6
CONTINUOUS
 10
63.7379004024
 20
24.1920038103
 11
63.4379004024
 21
24.1920038103
  0
LINE
  5
249
100
AcDbEntity
  8
0
100
AcDbLine
 62
7
  6
CONTINUOUS
 10
39.0379004024
 20
24.1920038103
 11
38.7379004024
 21
24.1920038103
  0
LINE
  5
24A
100
AcDbEntity
  8
0
100
AcDbLine
 62
7
  6
CONTINUOUS
 10
28.7379004024
 20
24.1920038103
 11
28.4379004024
 21
24.1920038103
  0
LINE
  5
24B
100
AcDbEntity
  8
0
100
AcDbLine
 62
7
  6
CONTINUOUS
 10
22.3379004024
 20
24.3920038101
 11
18.5879004024
 21
24.3920038101
  0
LINE
  5
24C
100
AcDbEntity
  8
0
100
AcDbLine
 62
7
  6
CONTINUOUS
 10
96.3949165479
 20
13.6236515973
 11
92.0464607886
 21
14.5876810297
  0
LINE
  5
24D
100
AcDbEntity
  8
0
100
AcDbLine
 62
7
  6
CONTINUOUS
 10
117.8629004025
 20
24.7920038101
 11
115.7629004024
 21
24.7920038101
  0
LINE
  5
24E
100
AcDbEntity
  8
0
100
AcDbLine
 62
7
  6
CONTINUOUS
 10
19.0879004024
 20
24.8920038101
 11
21.8379004024
 21
24.8920038101
  0
LINE
  5
24F
100
AcDbEntity
  8
0
100
AcDbLine
 62
7
  6
CONTINUOUS
 10
116.0629004024
 20
25.0920038101
 11
117.5629004024
 21
25.0920038101
  0
LINE
  5
250
100
AcDbEntity
  8
0
100
AcDbLine
 62
7
  6
CONTINUOUS
 10
17.6629004024
 20
26.3920038101
 11
17.3629004024
 21
26.3920038101
  0
LINE
  5
251
100
AcDbEntity
  8
0
100
AcDbLine
 62
7
  6
CONTINUOUS
 10
117.8629004024
 20
26.4600425771
 11
117.5629004024
 21
26.4600425771
  0
LINE
  5
252
100
AcDbEntity
  8
0
100
AcDbLine
 62
7
  6
CONTINUOUS
 10
120.1129004024
 20
26.5920038101
 11
119.8129004024
 21
26.5920038101
  0
LINE
  5
253
100
AcDbEntity
  8
0
100
AcDbLine
 62
7
  6
CONTINUOUS
 10
19.0879004024
 20
26.5920038101
 11
17.8629009671
 21
26.5920038101
  0
LINE
  5
254
100
AcDbEntity
  8
0
100
AcDbLine
 62
7
  6
CONTINUOUS
 10
117.9466199001
 20
26.7920037901
 11
119.6129004024
 21
26.7920038101
  0
LINE
  5
255
100
AcDbEntity
  8
0
100
AcDbLine
 62
7
  6
CONTINUOUS
 10
17.8629004024
 20
26.8920038101
 11
18.7879004024
 21
26.8920038101
  0
LINE
  5
256
100
AcDbEntity
  8
0
100
AcDbLine
 62
7
  6
CONTINUOUS
 10
117.7879004247
 20
27.0920038101
 11
119.6129004024
 21
27.0920038101
  0
LINE
  5
257
100
AcDbEntity
  8
0
100
AcDbLine
 62
7
  6
CONTINUOUS
 10
119.6129004024
 20
29.0520419579
 11
120.1129004024
 21
29.0520520228
  0
LINE
  5
258
100
AcDbEntity
  8
0
100
AcDbLine
 62
7
  6
CONTINUOUS
 10
49.9857479361
 20
15.6098044371
 11
49.7035485629
 21
15.8920038103
  0
LINE
  5
259
100
AcDbEntity
  8
0
100
AcDbLine
 62
7
  6
CONTINUOUS
 10
56.3049272609
 20
32.161886908
 11
56.2350534897
 21
32.1607077743
  0
LINE
  5
25A
100
AcDbEntity
  8
0
100
AcDbLine
 62
7
  6
CONTINUOUS
 10
116.4128388625
 20
31.5459456566
 11
116.0629004024
 21
31.5459456566
  0
LINE
  5
25B
100
AcDbEntity
  8
0
100
AcDbLine
 62
7
  6
CONTINUOUS
 10
116.4128388625
 20
31.7020038103
 11
116.2379004024
 21
31.7020038103
  0
LINE
  5
25C
100
AcDbEntity
  8
0
100
AcDbLine
 62
7
  6
CONTINUOUS
 10
21.4629004024
 20
31.7020038103
 11
21.8379004024
 21
31.7020038103
  0
LINE
  5
25D
100
AcDbEntity
  8
0
100
AcDbLine
 62
7
  6
CONTINUOUS
 10
115.7629004024
 20
31.8459456566
 11
116.2379004024
 21
31.8459456566
  0
LINE
  5
25E
100
AcDbEntity
  8
0
100
AcDbLine
 62
7
  6
CONTINUOUS
 10
56.7379715869
 20
31.99200402
 11
56.2379003992
 21
31.9920040013
  0
LINE
  5
25F
100
AcDbEntity
  8
0
100
AcDbLine
 62
7
  6
CONTINUOUS
 10
115.7379004024
 20
32.0920038101
 11
56.2362128827
 21
32.0920038101
  0
LINE
  5
260
100
AcDbEntity
  8
0
100
AcDbLine
 62
7
  6
CONTINUOUS
 10
46.2389005119
 20
32.0920038101
 11
21.8379004024
 21
32.0920038101
  0
LINE
  5
261
100
AcDbEntity
  8
0
100
AcDbLine
 62
7
  6
CONTINUOUS
 10
45.7707256486
 20
32.5920038022
 11
22.3379004005
 21
32.592003808
  0
LINE
  5
262
100
AcDbEntity
  8
0
100
AcDbLine
 62
7
  6
CONTINUOUS
 10
56.7050751563
 20
32.5920038022
 11
116.2379004024
 21
32.5920038101
  0
LINE
  5
263
100
AcDbEntity
  8
0
100
AcDbLine
 62
7
  6
CONTINUOUS
 10
120.6129004024
 20
36.4920038101
 11
116.2379004024
 21
36.4920038101
  0
LINE
  5
264
100
AcDbEntity
  8
0
100
AcDbLine
 62
7
  6
CONTINUOUS
 10
115.7379004024
 20
36.9920038101
 11
121.1129004024
 21
36.9920038101
  0
LINE
  5
265
100
AcDbEntity
  8
0
100
AcDbLine
 62
7
  6
CONTINUOUS
 10
21.8379004024
 20
37.0920038101
 11
16.8879004024
 21
37.0920038101
  0
LINE
  5
266
100
AcDbEntity
  8
0
100
AcDbLine
 62
7
  6
CONTINUOUS
 10
63.7379004024
 20
15.5920038103
 11
63.4379004024
 21
15.8920038103
  0
LINE
  5
267
100
AcDbEntity
  8
0
100
AcDbLine
 62
7
  6
CONTINUOUS
 10
17.9850909428
 20
16.2739614828
 11
17.8947605753
 21
21.4489847727
  0
LINE
  5
268
100
AcDbEntity
  8
0
100
AcDbLine
 62
7
  6
CONTINUOUS
 10
16.3879004024
 20
34.2876732615
 11
16.3879004024
 21
154.0963343396
  0
LINE
  5
269
100
AcDbEntity
  8
0
100
AcDbLine
 62
7
  6
CONTINUOUS
 10
16.7879004024
 20
65.6413710414
 11
16.7879004024
 21
64.4920038101
  0
LINE
  5
26A
100
AcDbEntity
  8
0
100
AcDbLine
 62
7
  6
CONTINUOUS
 10
16.7879004024
 20
48.7920038101
 11
16.7879004024
 21
49.0920038101
  0
LINE
  5
26B
100
AcDbEntity
  8
0
100
AcDbLine
 62
7
  6
CONTINUOUS
 10
16.8879004024
 20
151.7171419633
 11
16.8879004024
 21
115.2098891534
  0
LINE
  5
26C
100
AcDbEntity
  8
0
100
AcDbLine
 62
7
  6
CONTINUOUS
 10
16.8879004024
 20
108.0020879717
 11
16.8879004024
 21
65.6442295404
  0
LINE
  5
26D
100
AcDbEntity
  8
0
100
AcDbLine
 62
7
  6
CONTINUOUS
 10
16.8879004024
 20
64.4920038101
 11
16.8879003852
 21
34.7230926829
  0
LINE
  5
26E
100
AcDbEntity
  8
0
100
AcDbLine
 62
7
  6
CONTINUOUS
 10
17.367838674
 20
21.8420038101
 11
17.3629004024
 21
29.3479955091
  0
LINE
  5
26F
100
AcDbEntity
  8
0
100
AcDbLine
 62
7
  6
CONTINUOUS
 10
17.3629004024
 20
161.2920038101
 11
17.3629004024
 21
165.047009378
  0
LINE
  5
270
100
AcDbEntity
  8
0
100
AcDbLine
 62
7
  6
CONTINUOUS
 10
17.3878954495
 20
159.0469086832
 11
17.3879004024
 21
161.2920038101
  0
LINE
  5
271
100
AcDbEntity
  8
0
100
AcDbLine
 62
7
  6
CONTINUOUS
 10
17.3879004024
 20
165.0594324226
 11
17.3879004024
 21
166.5420038101
  0
LINE
  5
272
100
AcDbEntity
  8
0
100
AcDbLine
 62
7
  6
CONTINUOUS
 10
17.662900413
 20
26.3920033315
 11
17.6629004024
 21
23.5168749407
  0
LINE
  5
273
100
AcDbEntity
  8
0
100
AcDbLine
 62
7
  6
CONTINUOUS
 10
17.7379004024
 20
112.0920038101
 11
17.7379004024
 21
111.0920038101
  0
LINE
  5
274
100
AcDbEntity
  8
0
100
AcDbLine
 62
7
  6
CONTINUOUS
 10
17.8629003857
 20
29.0520464649
 11
17.8629004024
 21
26.5920038101
  0
LINE
  5
275
100
AcDbEntity
  8
0
100
AcDbLine
 62
7
  6
CONTINUOUS
 10
17.9329835347
 20
169.1523348463
 11
17.9329004024
 21
171.7920038099
  0
LINE
  5
276
100
AcDbEntity
  8
0
100
AcDbLine
 62
7
  6
CONTINUOUS
 10
17.9849250843
 20
16.2736682794
 11
17.9849587925
 21
14.5876810297
  0
LINE
  5
277
100
AcDbEntity
  8
0
100
AcDbLine
 62
7
  6
CONTINUOUS
 10
18.2329004024
 20
19.1022550824
 11
18.2329004024
 21
16.5920038103
  0
LINE
  5
278
100
AcDbEntity
  8
0
100
AcDbLine
 62
7
  6
CONTINUOUS
 10
17.9849004958
 20
172.1099063088
 11
17.9849587925
 21
173.7963265905
  0
LINE
  5
279
100
AcDbEntity
  8
0
100
AcDbLine
 62
7
  6
CONTINUOUS
 10
17.8947605753
 20
166.9350228475
 11
17.9334327819
 21
169.1519241221
  0
LINE
  5
27A
100
AcDbEntity
  8
0
100
AcDbLine
 62
7
  6
CONTINUOUS
 10
16.3879004024
 20
37.5920038101
 11
22.3379004023
 21
37.5920038099
  0
LINE
  5
27B
100
AcDbEntity
  8
0
100
AcDbLine
 62
7
  6
CONTINUOUS
 10
120.6129004024
 20
42.2889543958
 11
16.8879004024
 21
42.2889543958
  0
LINE
  5
27C
100
AcDbEntity
  8
0
100
AcDbLine
 62
7
  6
CONTINUOUS
 10
16.3879004024
 20
42.7889543958
 11
121.1129004024
 21
42.7889543958
  0
LINE
  5
27D
100
AcDbEntity
  8
0
100
AcDbLine
 62
7
  6
CONTINUOUS
 10
17.2501578338
 20
151.7171419633
 11
17.2972192068
 21
151.2171419633
  0
LINE
  5
27E
100
AcDbEntity
  8
0
100
AcDbLine
 62
7
  6
CONTINUOUS
 10
18.5879004024
 20
24.3920038101
 11
18.5879004024
 21
26.8920038101
  0
LINE
  5
27F
100
AcDbEntity
  8
0
100
AcDbLine
 62
7
  6
CONTINUOUS
 10
18.9329004024
 20
15.8920038103
 11
18.9329004024
 21
15.5920038103
  0
LINE
  5
280
100
AcDbEntity
  8
0
100
AcDbLine
 62
7
  6
CONTINUOUS
 10
19.0879004024
 20
26.5920038101
 11
19.0879004024
 21
24.8920038101
  0
LINE
  5
281
100
AcDbEntity
  8
0
100
AcDbLine
 62
7
  6
CONTINUOUS
 10
19.3004004024
 20
114.3011393247
 11
19.3004004024
 21
112.4188010948
  0
LINE
  5
282
100
AcDbEntity
  8
0
100
AcDbLine
 62
7
  6
CONTINUOUS
 10
19.3004004024
 20
110.7652065254
 11
19.3004004024
 21
108.8828682955
  0
LINE
  5
283
100
AcDbEntity
  8
0
100
AcDbLine
 62
7
  6
CONTINUOUS
 10
19.9629004024
 20
163.2920038101
 11
19.9629004024
 21
161.2920038101
  0
LINE
  5
284
100
AcDbEntity
  8
0
100
AcDbLine
 62
7
  6
CONTINUOUS
 10
20.4254004024
 20
108.8828682955
 11
20.4254004024
 21
110.7652065254
  0
LINE
  5
285
100
AcDbEntity
  8
0
100
AcDbLine
 62
7
  6
CONTINUOUS
 10
20.4254004024
 20
112.4188010948
 11
20.4254004024
 21
114.3011393247
  0
LINE
  5
286
100
AcDbEntity
  8
0
100
AcDbLine
 62
7
  6
CONTINUOUS
 10
21.4379004024
 20
161.2920038101
 11
21.4379004024
 21
156.2911236306
  0
LINE
  5
287
100
AcDbEntity
  8
0
100
AcDbLine
 62
7
  6
CONTINUOUS
 10
21.4628836129
 20
156.2911879076
 11
21.4629004024
 21
163.2920038101
  0
LINE
  5
288
100
AcDbEntity
  8
0
100
AcDbLine
 62
7
  6
CONTINUOUS
 10
21.4629004024
 20
24.8920038101
 11
21.4629004024
 21
31.7020038103
  0
LINE
  5
289
100
AcDbEntity
  8
0
100
AcDbLine
 62
7
  6
CONTINUOUS
 10
21.8379004024
 20
24.8920038101
 11
21.8379004024
 21
37.0920038101
  0
LINE
  5
28A
100
AcDbEntity
  8
0
100
AcDbLine
 62
7
  6
CONTINUOUS
 10
21.9879004024
 20
111.0920038101
 11
21.9879004024
 21
112.0920038101
  0
LINE
  5
28B
100
AcDbEntity
  8
0
100
AcDbLine
 62
7
  6
CONTINUOUS
 10
22.3379004023
 20
37.5920038099
 11
22.3379004005
 21
32.592003808
  0
LINE
  5
28C
100
AcDbEntity
  8
0
100
AcDbLine
 62
7
  6
CONTINUOUS
 10
22.3379004024
 20
32.0920038101
 11
22.3379004024
 21
24.3920038101
  0
LINE
  5
28D
100
AcDbEntity
  8
0
100
AcDbLine
 62
7
  6
CONTINUOUS
 10
23.2129004024
 20
14.8620038101
 11
23.2129004024
 21
15.5920038103
  0
LINE
  5
28E
100
AcDbEntity
  8
0
100
AcDbLine
 62
7
  6
CONTINUOUS
 10
23.2129004024
 20
172.7920038099
 11
23.2129004024
 21
173.5220038101
  0
LINE
  5
28F
100
AcDbEntity
  8
0
100
AcDbLine
 62
7
  6
CONTINUOUS
 10
23.2936272873
 20
113.5105258329
 11
23.293652822
 21
134.3671915639
  0
LINE
  5
290
100
AcDbEntity
  8
0
100
AcDbLine
 62
7
  6
CONTINUOUS
 10
23.2936420451
 20
72.2185728968
 11
23.2936272873
 21
109.6734817873
  0
LINE
  5
291
100
AcDbEntity
  8
0
100
AcDbLine
 62
7
  6
CONTINUOUS
 10
23.7936272873
 20
134.3664478485
 11
23.7936272873
 21
113.6366861223
  0
LINE
  5
292
100
AcDbEntity
  8
0
100
AcDbLine
 62
7
  6
CONTINUOUS
 10
23.7936272873
 20
109.5473212589
 11
23.7936272873
 21
72.2176698339
  0
LINE
  5
293
100
AcDbEntity
  8
0
100
AcDbLine
 62
7
  6
CONTINUOUS
 10
24.0936272873
 20
112.9081689229
 11
24.0936552401
 21
134.365041356
  0
LINE
  5
294
100
AcDbEntity
  8
0
100
AcDbLine
 62
7
  6
CONTINUOUS
 10
24.2936415135
 20
72.2185041513
 11
24.2936280663
 21
111.5919874599
  0
LINE
  5
295
100
AcDbEntity
  8
0
100
AcDbLine
 62
7
  6
CONTINUOUS
 10
22.9799837067
 20
114.4822829622
 11
23.1686688927
 21
114.7355390201
  0
LINE
  5
296
100
AcDbEntity
  8
0
100
AcDbLine
 62
7
  6
CONTINUOUS
 10
21.9720913709
 20
115.6372248571
 11
21.3939229247
 21
114.8699694138
  0
LINE
  5
297
100
AcDbEntity
  8
0
100
AcDbLine
 62
7
  6
CONTINUOUS
 10
22.5918761853
 20
113.9672468847
 11
22.9799837067
 21
114.4822829622
  0
LINE
  5
298
100
AcDbEntity
  8
0
100
AcDbLine
 62
7
  6
CONTINUOUS
 10
121.1129004024
 20
48.7920038101
 11
120.7129004024
 21
48.7920038101
  0
LINE
  5
299
100
AcDbEntity
  8
0
100
AcDbLine
 62
7
  6
CONTINUOUS
 10
16.7879004024
 20
48.7920038101
 11
16.3879004024
 21
48.7920038101
  0
LINE
  5
29A
100
AcDbEntity
  8
0
100
AcDbLine
 62
7
  6
CONTINUOUS
 10
16.3879004024
 20
49.0920038101
 11
16.7879004024
 21
49.0920038101
  0
LINE
  5
29B
100
AcDbEntity
  8
0
100
AcDbLine
 62
7
  6
CONTINUOUS
 10
120.7129004024
 20
49.0920038101
 11
121.1129004024
 21
49.0920038101
  0
LINE
  5
29C
100
AcDbEntity
  8
0
100
AcDbLine
 62
7
  6
CONTINUOUS
 10
84.9853141349
 20
15.5932382379
 11
84.6865485626
 21
15.8920038103
  0
LINE
  5
29D
100
AcDbEntity
  8
0
100
AcDbLine
 62
7
  6
CONTINUOUS
 10
26.3879004024
 20
174.7920038101
 11
26.3879004024
 21
173.5220038101
  0
LINE
  5
29E
100
AcDbEntity
  8
0
100
AcDbLine
 62
7
  6
CONTINUOUS
 10
26.3879004024
 20
14.8620038101
 11
26.3879004024
 21
13.5920038101
  0
LINE
  5
29F
100
AcDbEntity
  8
0
100
AcDbLine
 62
7
  6
CONTINUOUS
 10
27.7379004024
 20
15.5920038103
 11
27.7379004024
 21
15.8920038103
  0
LINE
  5
2A0
100
AcDbEntity
  8
0
100
AcDbLine
 62
7
  6
CONTINUOUS
 10
28.4379004024
 20
16.5920038103
 11
28.4379004025
 21
24.1920036126
  0
LINE
  5
2A1
100
AcDbEntity
  8
0
100
AcDbLine
 62
7
  6
CONTINUOUS
 10
28.7379004024
 20
171.7920038099
 11
28.7379004024
 21
164.1920038099
  0
LINE
  5
2A2
100
AcDbEntity
  8
0
100
AcDbLine
 62
7
  6
CONTINUOUS
 10
28.7379004024
 20
24.1920038093
 11
28.7379004024
 21
16.5920038103
  0
LINE
  5
2A3
100
AcDbEntity
  8
0
100
AcDbLine
 62
7
  6
CONTINUOUS
 10
28.788539638
 20
67.7227498775
 11
28.7883505461
 21
66.7227307297
  0
LINE
  5
2A4
100
AcDbEntity
  8
0
100
AcDbLine
 62
7
  6
CONTINUOUS
 10
29.0379004024
 20
166.0064532819
 11
29.0379004024
 21
162.9946290334
  0
LINE
  5
2A5
100
AcDbEntity
  8
0
100
AcDbLine
 62
7
  6
CONTINUOUS
 10
29.0379004024
 20
22.3775543383
 11
29.0379004024
 21
25.3417333651
  0
LINE
  5
2A6
100
AcDbEntity
  8
0
100
AcDbLine
 62
7
  6
CONTINUOUS
 10
29.7629004024
 20
173.5220038101
 11
29.7629004024
 21
172.7920038099
  0
LINE
  5
2A7
100
AcDbEntity
  8
0
100
AcDbLine
 62
7
  6
CONTINUOUS
 10
29.7629004024
 20
14.8620038101
 11
29.7629004024
 21
15.5920038103
  0
LINE
  5
2A8
100
AcDbEntity
  8
0
100
AcDbLine
 62
7
  6
CONTINUOUS
 10
28.788528743
 20
139.0612768237
 11
28.7879060202
 21
139.8612768237
  0
LINE
  5
2A9
100
AcDbEntity
  8
0
100
AcDbLine
 62
7
  6
CONTINUOUS
 10
37.7629004024
 20
173.5220038101
 11
37.7629004024
 21
172.7920038099
  0
LINE
  5
2AA
100
AcDbEntity
  8
0
100
AcDbLine
 62
7
  6
CONTINUOUS
 10
37.7629004024
 20
14.8620038101
 11
37.7629004024
 21
15.5920038103
  0
LINE
  5
2AB
100
AcDbEntity
  8
0
100
AcDbLine
 62
7
  6
CONTINUOUS
 10
38.0379004024
 20
26.7364532819
 11
38.0379004024
 21
22.3775543383
  0
LINE
  5
2AC
100
AcDbEntity
  8
0
100
AcDbLine
 62
7
  6
CONTINUOUS
 10
38.0379004024
 20
161.6808690455
 11
38.0379004024
 21
166.0064532819
  0
LINE
  5
2AD
100
AcDbEntity
  8
0
100
AcDbLine
 62
7
  6
CONTINUOUS
 10
38.7379004024
 20
16.5920038102
 11
38.7379004024
 21
24.1920038102
  0
LINE
  5
2AE
100
AcDbEntity
  8
0
100
AcDbLine
 62
7
  6
CONTINUOUS
 10
38.7379004024
 20
164.1920038099
 11
38.7379004024
 21
171.7920038099
  0
LINE
  5
2AF
100
AcDbEntity
  8
0
100
AcDbLine
 62
7
  6
CONTINUOUS
 10
39.0379004024
 20
24.1920040313
 11
39.0379004024
 21
16.5920038102
  0
LINE
  5
2B0
100
AcDbEntity
  8
0
100
AcDbLine
 62
7
  6
CONTINUOUS
 10
39.7379004024
 20
15.8920038103
 11
39.7379004024
 21
15.5920038103
  0
LINE
  5
2B1
100
AcDbEntity
  8
0
100
AcDbLine
 62
7
  6
CONTINUOUS
 10
41.0879004024
 20
13.5920038101
 11
41.0879004024
 21
14.8620038101
  0
LINE
  5
2B2
100
AcDbEntity
  8
0
100
AcDbLine
 62
7
  6
CONTINUOUS
 10
41.0879004024
 20
173.5220038101
 11
41.0879004024
 21
174.7920038101
  0
LINE
  5
2B3
100
AcDbEntity
  8
0
100
AcDbLine
 62
7
  6
CONTINUOUS
 10
16.3879004024
 20
64.4920038101
 11
121.1129004024
 21
64.4920038101
  0
LINE
  5
2B4
100
AcDbEntity
  8
0
100
AcDbLine
 62
7
  6
CONTINUOUS
 10
16.7879004024
 20
65.3920038101
 11
16.3879004024
 21
65.3920038101
  0
LINE
  5
2B5
100
AcDbEntity
  8
0
100
AcDbLine
 62
7
  6
CONTINUOUS
 10
120.7129004024
 20
65.3920038101
 11
121.1129004024
 21
65.3920038101
  0
LINE
  5
2B6
100
AcDbEntity
  8
0
100
AcDbLine
 62
7
  6
CONTINUOUS
 10
121.1128815367
 20
65.6442295412
 11
16.3879193807
 21
65.6442295412
  0
LINE
  5
2B7
100
AcDbEntity
  8
0
100
AcDbLine
 62
7
  6
CONTINUOUS
 10
108.7363312736
 20
66.7227454831
 11
28.7851731451
 21
66.7223691941
  0
LINE
  5
2B8
100
AcDbEntity
  8
0
100
AcDbLine
 62
7
  6
CONTINUOUS
 10
28.7885449129
 20
67.2227307297
 11
108.7372258136
 21
67.2227307297
  0
LINE
  5
2B9
100
AcDbEntity
  8
0
100
AcDbLine
 62
7
  6
CONTINUOUS
 10
108.7361423699
 20
67.7227563245
 11
82.2963679328
 21
67.7227307297
  0
LINE
  5
2BA
100
AcDbEntity
  8
0
100
AcDbLine
 62
7
  6
CONTINUOUS
 10
55.4294285057
 20
67.7227374969
 11
28.7895973411
 21
67.7227622575
  0
LINE
  5
2BB
100
AcDbEntity
  8
0
100
AcDbLine
 62
7
  6
CONTINUOUS
 10
52.4957284537
 20
15.6917990749
 11
52.4093426377
 21
18.6920038101
  0
LINE
  5
2BC
100
AcDbEntity
  8
0
100
AcDbLine
 62
7
  6
CONTINUOUS
 10
44.3129004024
 20
173.5220038101
 11
44.3129004024
 21
172.7920038099
  0
LINE
  5
2BD
100
AcDbEntity
  8
0
100
AcDbLine
 62
7
  6
CONTINUOUS
 10
44.3129004024
 20
15.5920038103
 11
44.3129004024
 21
14.8620038101
  0
LINE
  5
2BE
100
AcDbEntity
  8
0
100
AcDbLine
 62
7
  6
CONTINUOUS
 10
49.7035485758
 20
18.7601590914
 11
49.7035485629
 21
15.8920038103
  0
LINE
  5
2BF
100
AcDbEntity
  8
0
100
AcDbLine
 62
7
  6
CONTINUOUS
 10
50.0035485629
 20
172.0944246707
 11
50.0035485629
 21
169.4570673197
  0
LINE
  5
2C0
100
AcDbEntity
  8
0
100
AcDbLine
 62
7
  6
CONTINUOUS
 10
50.0035485629
 20
16.2900190721
 11
50.0035485629
 21
18.9269403202
  0
LINE
  5
2C1
100
AcDbEntity
  8
0
100
AcDbLine
 62
7
  6
CONTINUOUS
 10
52.4093426377
 20
169.6920038101
 11
52.4956798922
 21
172.6921921163
  0
LINE
  5
2C2
100
AcDbEntity
  8
0
100
AcDbLine
 62
7
  6
CONTINUOUS
 10
24.2936347901
 20
72.2176637419
 11
23.2936272873
 21
72.2174540576
  0
LINE
  5
2C3
100
AcDbEntity
  8
0
100
AcDbLine
 62
7
  6
CONTINUOUS
 10
81.7963679328
 20
75.2090871132
 11
55.7294328721
 21
75.2090871132
  0
LINE
  5
2C4
100
AcDbEntity
  8
0
100
AcDbLine
 62
7
  6
CONTINUOUS
 10
55.4294328721
 20
75.7090871132
 11
82.2963679328
 21
75.7090871132
  0
LINE
  5
2C5
100
AcDbEntity
  8
0
100
AcDbLine
 62
7
  6
CONTINUOUS
 10
114.2321735019
 20
72.2174539799
 11
113.2321735019
 21
72.2176637264
  0
LINE
  5
2C6
100
AcDbEntity
  8
0
100
AcDbLine
 62
7
  6
CONTINUOUS
 10
52.3438778338
 20
21.1920038101
 11
52.2868855418
 21
23.3684516324
  0
LINE
  5
2C7
100
AcDbEntity
  8
0
100
AcDbLine
 62
7
  6
CONTINUOUS
 10
50.1319229711
 20
167.1920038101
 11
50.1885316954
 21
165.0302038472
  0
LINE
  5
2C8
100
AcDbEntity
  8
0
100
AcDbLine
 62
7
  6
CONTINUOUS
 10
50.0664581672
 20
169.6920038101
 11
49.9589826927
 21
173.7963265905
  0
LINE
  5
2C9
100
AcDbEntity
  8
0
100
AcDbLine
 62
7
  6
CONTINUOUS
 10
56.2379004003
 20
31.9920039391
 11
56.23505349
 21
32.1607077551
  0
LINE
  5
2CA
100
AcDbEntity
  8
0
100
AcDbLine
 62
7
  6
CONTINUOUS
 10
56.7362840707
 20
32.0920038101
 11
56.7379044665
 21
31.9936091229
  0
LINE
  5
2CB
100
AcDbEntity
  8
0
100
AcDbLine
 62
7
  6
CONTINUOUS
 10
52.500457568
 20
173.7963265905
 11
52.5035485626
 21
169.4570673197
  0
LINE
  5
2CC
100
AcDbEntity
  8
0
100
AcDbLine
 62
7
  6
CONTINUOUS
 10
52.5035485626
 20
14.5876810297
 11
52.5035485626
 21
18.9269403202
  0
LINE
  5
2CD
100
AcDbEntity
  8
0
100
AcDbLine
 62
7
  6
CONTINUOUS
 10
52.8035485626
 20
15.8920038103
 11
52.8035485496
 21
18.7601590914
  0
LINE
  5
2CE
100
AcDbEntity
  8
0
100
AcDbLine
 62
7
  6
CONTINUOUS
 10
55.4294285057
 20
67.7227374969
 11
55.4294328721
 21
75.7090871132
  0
LINE
  5
2CF
100
AcDbEntity
  8
0
100
AcDbLine
 62
7
  6
CONTINUOUS
 10
55.7294328721
 20
67.2227307297
 11
55.7294328721
 21
75.2508295437
  0
LINE
  5
2D0
100
AcDbEntity
  8
0
100
AcDbLine
 62
7
  6
CONTINUOUS
 10
52.2868855418
 20
165.0155559878
 11
52.3438778338
 21
167.1920038101
  0
LINE
  5
2D1
100
AcDbEntity
  8
0
100
AcDbLine
 62
7
  6
CONTINUOUS
 10
50.1885316954
 20
23.353803773
 11
50.1319229711
 21
21.1920038101
  0
LINE
  5
2D2
100
AcDbEntity
  8
0
100
AcDbLine
 62
7
  6
CONTINUOUS
 10
50.0664581672
 20
18.6920038101
 11
49.9589826927
 21
14.5876810297
  0
LINE
  5
2D3
100
AcDbEntity
  8
0
100
AcDbLine
 62
7
  6
CONTINUOUS
 10
62.8629004024
 20
78.52982456
 11
74.6629004024
 21
78.52982456
  0
LINE
  5
2D4
100
AcDbEntity
  8
0
100
AcDbLine
 62
7
  6
CONTINUOUS
 10
117.5629004024
 20
25.0920038101
 11
117.8629004024
 21
24.7920038101
  0
LINE
  5
2D5
100
AcDbEntity
  8
0
100
AcDbLine
 62
7
  6
CONTINUOUS
 10
58.2129004024
 20
14.8620038101
 11
58.2129004024
 21
15.5920038103
  0
LINE
  5
2D6
100
AcDbEntity
  8
0
100
AcDbLine
 62
7
  6
CONTINUOUS
 10
58.2129004024
 20
172.7920038099
 11
58.2129004024
 21
173.5220038101
  0
LINE
  5
2D7
100
AcDbEntity
  8
0
100
AcDbLine
 62
7
  6
CONTINUOUS
 10
61.3879004024
 20
174.7920038101
 11
61.3879004024
 21
173.5220038101
  0
LINE
  5
2D8
100
AcDbEntity
  8
0
100
AcDbLine
 62
7
  6
CONTINUOUS
 10
61.3879004024
 20
14.8620038101
 11
61.3879004024
 21
13.5920038101
  0
LINE
  5
2D9
100
AcDbEntity
  8
0
100
AcDbLine
 62
7
  6
CONTINUOUS
 10
61.5129004024
 20
131.1316859849
 11
61.5129004024
 21
85.2375018818
  0
LINE
  5
2DA
100
AcDbEntity
  8
0
100
AcDbLine
 62
7
  6
CONTINUOUS
 10
62.0629004024
 20
101.4699144804
 11
62.0629004024
 21
79.3298262196
  0
LINE
  5
2DB
100
AcDbEntity
  8
0
100
AcDbLine
 62
7
  6
CONTINUOUS
 10
62.8629004024
 20
94.7989614046
 11
62.8629004024
 21
78.52982456
  0
LINE
  5
2DC
100
AcDbEntity
  8
0
100
AcDbLine
 62
7
  6
CONTINUOUS
 10
63.0629004024
 20
101.5896289256
 11
63.0629004024
 21
94.8130882636
  0
LINE
  5
2DD
100
AcDbEntity
  8
0
100
AcDbLine
 62
7
  6
CONTINUOUS
 10
61.5129004024
 20
85.2375018818
 11
62.0629004024
 21
85.2375018818
  0
LINE
  5
2DE
100
AcDbEntity
  8
0
100
AcDbLine
 62
7
  6
CONTINUOUS
 10
75.4629004024
 20
85.2375018818
 11
76.0129004024
 21
85.2375018818
  0
LINE
  5
2DF
100
AcDbEntity
  8
0
100
AcDbLine
 62
7
  6
CONTINUOUS
 10
76.0129004024
 20
88.0651642111
 11
75.4629004024
 21
88.0651642111
  0
LINE
  5
2E0
100
AcDbEntity
  8
0
100
AcDbLine
 62
7
  6
CONTINUOUS
 10
62.0629004024
 20
88.0651642111
 11
61.5129004024
 21
88.0651642111
  0
LINE
  5
2E1
100
AcDbEntity
  8
0
100
AcDbLine
 62
7
  6
CONTINUOUS
 10
23.1686688927
 20
114.7355390201
 11
21.9720913709
 21
115.6372248571
  0
LINE
  5
2E2
100
AcDbEntity
  8
0
100
AcDbLine
 62
7
  6
CONTINUOUS
 10
116.0629004024
 20
31.5459456566
 11
115.7629004024
 21
31.8459456566
  0
LINE
  5
2E3
100
AcDbEntity
  8
0
100
AcDbLine
 62
7
  6
CONTINUOUS
 10
116.2379004024
 20
36.4920038101
 11
115.7379004024
 21
36.9920038101
  0
LINE
  5
2E4
100
AcDbEntity
  8
0
100
AcDbLine
 62
7
  6
CONTINUOUS
 10
63.4379004024
 20
15.8920038103
 11
63.4379004025
 21
24.1920036126
  0
LINE
  5
2E5
100
AcDbEntity
  8
0
100
AcDbLine
 62
7
  6
CONTINUOUS
 10
63.7379004024
 20
172.7920038099
 11
63.7379004024
 21
164.1920038099
  0
LINE
  5
2E6
100
AcDbEntity
  8
0
100
AcDbLine
 62
7
  6
CONTINUOUS
 10
63.7379004024
 20
24.192003809
 11
63.7379004024
 21
15.5920038103
  0
LINE
  5
2E7
100
AcDbEntity
  8
0
100
AcDbLine
 62
7
  6
CONTINUOUS
 10
64.2379004024
 20
166.0064532819
 11
64.2379004024
 21
162.2814314041
  0
LINE
  5
2E8
100
AcDbEntity
  8
0
100
AcDbLine
 62
7
  6
CONTINUOUS
 10
64.2379004024
 20
22.3775543383
 11
64.2379004024
 21
26.1082197359
  0
LINE
  5
2E9
100
AcDbEntity
  8
0
100
AcDbLine
 62
7
  6
CONTINUOUS
 10
64.7629004024
 20
173.5220038101
 11
64.7629004024
 21
172.7920038099
  0
LINE
  5
2EA
100
AcDbEntity
  8
0
100
AcDbLine
 62
7
  6
CONTINUOUS
 10
64.7629004024
 20
14.8620038101
 11
64.7629004024
 21
15.5920038103
  0
LINE
  5
2EB
100
AcDbEntity
  8
0
100
AcDbLine
 62
7
  6
CONTINUOUS
 10
62.8629004024
 20
91.6751913181
 11
74.6629004024
 21
91.6751912847
  0
LINE
  5
2EC
100
AcDbEntity
  8
0
100
AcDbLine
 62
7
  6
CONTINUOUS
 10
74.4629003804
 20
94.8130882636
 11
63.0629004244
 21
94.8130882636
  0
LINE
  5
2ED
100
AcDbEntity
  8
0
100
AcDbLine
 62
7
  6
CONTINUOUS
 10
72.7629004024
 20
173.5220038101
 11
72.7629004024
 21
172.7920038099
  0
LINE
  5
2EE
100
AcDbEntity
  8
0
100
AcDbLine
 62
7
  6
CONTINUOUS
 10
72.7629004024
 20
14.8620038101
 11
72.7629004024
 21
15.5920038103
  0
LINE
  5
2EF
100
AcDbEntity
  8
0
100
AcDbLine
 62
7
  6
CONTINUOUS
 10
73.2379004024
 20
26.7364532819
 11
73.2379004024
 21
22.3775543383
  0
LINE
  5
2F0
100
AcDbEntity
  8
0
100
AcDbLine
 62
7
  6
CONTINUOUS
 10
73.2379004024
 20
161.6475543383
 11
73.2379004024
 21
166.0064532819
  0
LINE
  5
2F1
100
AcDbEntity
  8
0
100
AcDbLine
 62
7
  6
CONTINUOUS
 10
73.7379004024
 20
16.5920038102
 11
73.7379004024
 21
24.1920038102
  0
LINE
  5
2F2
100
AcDbEntity
  8
0
100
AcDbLine
 62
7
  6
CONTINUOUS
 10
73.7379004024
 20
164.1920038099
 11
73.7379004024
 21
171.7920038099
  0
LINE
  5
2F3
100
AcDbEntity
  8
0
100
AcDbLine
 62
7
  6
CONTINUOUS
 10
74.0379004024
 20
24.1920040313
 11
74.0379004024
 21
16.5920038102
  0
LINE
  5
2F4
100
AcDbEntity
  8
0
100
AcDbLine
 62
7
  6
CONTINUOUS
 10
74.4629004024
 20
94.8130882631
 11
74.4628962934
 21
101.5896289256
  0
LINE
  5
2F5
100
AcDbEntity
  8
0
100
AcDbLine
 62
7
  6
CONTINUOUS
 10
74.6629004024
 20
78.52982456
 11
74.6629004024
 21
94.7989614046
  0
LINE
  5
2F6
100
AcDbEntity
  8
0
100
AcDbLine
 62
7
  6
CONTINUOUS
 10
74.7379004024
 20
15.8920038103
 11
74.7379004024
 21
15.5920038103
  0
LINE
  5
2F7
100
AcDbEntity
  8
0
100
AcDbLine
 62
7
  6
CONTINUOUS
 10
75.4629004024
 20
79.3298262901
 11
75.4629004024
 21
101.4698837719
  0
LINE
  5
2F8
100
AcDbEntity
  8
0
100
AcDbLine
 62
7
  6
CONTINUOUS
 10
76.0129004024
 20
85.2375018818
 11
76.0129004024
 21
131.1316859849
  0
LINE
  5
2F9
100
AcDbEntity
  8
0
100
AcDbLine
 62
7
  6
CONTINUOUS
 10
90.8824318262
 20
156.2605694635
 11
91.0129004024
 21
156.7920038101
  0
LINE
  5
2FA
100
AcDbEntity
  8
0
100
AcDbLine
 62
7
  6
CONTINUOUS
 10
21.8379004024
 20
37.0920038101
 11
22.3379004014
 21
37.5920038091
  0
LINE
  5
2FB
100
AcDbEntity
  8
0
100
AcDbLine
 62
7
  6
CONTINUOUS
 10
63.0629004024
 20
95.3138181254
 11
74.4629004024
 21
95.3138181252
  0
LINE
  5
2FC
100
AcDbEntity
  8
0
100
AcDbLine
 62
7
  6
CONTINUOUS
 10
74.4629003989
 20
98.3877432857
 11
63.0629004054
 21
98.3877434083
  0
LINE
  5
2FD
100
AcDbEntity
  8
0
100
AcDbLine
 62
7
  6
CONTINUOUS
 10
76.0879004024
 20
13.5920038101
 11
76.0879004024
 21
14.8620038101
  0
LINE
  5
2FE
100
AcDbEntity
  8
0
100
AcDbLine
 62
7
  6
CONTINUOUS
 10
76.0879004024
 20
173.5220038101
 11
76.0879004024
 21
174.7920038101
  0
LINE
  5
2FF
100
AcDbEntity
  8
0
100
AcDbLine
 62
7
  6
CONTINUOUS
 10
79.3129004024
 20
173.5220038101
 11
79.3129004024
 21
172.7920038099
  0
LINE
  5
300
100
AcDbEntity
  8
0
100
AcDbLine
 62
7
  6
CONTINUOUS
 10
79.3129004024
 20
15.5920038103
 11
79.3129004024
 21
14.8620038101
  0
LINE
  5
301
100
AcDbEntity
  8
0
100
AcDbLine
 62
7
  6
CONTINUOUS
 10
81.7963679328
 20
67.2227307297
 11
81.7963679328
 21
75.2090871132
  0
LINE
  5
302
100
AcDbEntity
  8
0
100
AcDbLine
 62
7
  6
CONTINUOUS
 10
82.2963679328
 20
75.7090871132
 11
82.2963679328
 21
67.7227307297
  0
LINE
  5
303
100
AcDbEntity
  8
0
100
AcDbLine
 62
7
  6
CONTINUOUS
 10
21.8379004024
 20
32.0920038101
 11
22.3379003976
 21
32.5920038051
  0
LINE
  5
304
100
AcDbEntity
  8
0
100
AcDbLine
 62
7
  6
CONTINUOUS
 10
121.1129004024
 20
108.0297570354
 11
120.2693260853
 21
107.9741185645
  0
LINE
  5
305
100
AcDbEntity
  8
0
100
AcDbLine
 62
7
  6
CONTINUOUS
 10
74.4628988779
 20
101.5896289256
 11
63.0628988792
 21
101.5896289256
  0
LINE
  5
306
100
AcDbEntity
  8
0
100
AcDbLine
 62
7
  6
CONTINUOUS
 10
17.2563321988
 20
107.9741190674
 11
16.3879004024
 21
108.0400446634
  0
LINE
  5
307
100
AcDbEntity
  8
0
100
AcDbLine
 62
7
  6
CONTINUOUS
 10
84.9924586656
 20
172.2921585404
 11
85.0664581672
 21
169.6920038101
  0
LINE
  5
308
100
AcDbEntity
  8
0
100
AcDbLine
 62
7
  6
CONTINUOUS
 10
87.4819896132
 20
16.0918844541
 11
87.4093426377
 21
18.6920038101
  0
LINE
  5
309
100
AcDbEntity
  8
0
100
AcDbLine
 62
7
  6
CONTINUOUS
 10
87.3438778338
 20
21.1920038101
 11
87.2870921278
 21
23.3605624312
  0
LINE
  5
30A
100
AcDbEntity
  8
0
100
AcDbLine
 62
7
  6
CONTINUOUS
 10
85.1319229711
 20
167.1920038101
 11
85.1887418123
 21
165.0221798049
  0
LINE
  5
30B
100
AcDbEntity
  8
0
100
AcDbLine
 62
7
  6
CONTINUOUS
 10
84.9865485626
 20
172.7436284916
 11
84.9589826927
 21
173.7963265905
  0
LINE
  5
30C
100
AcDbEntity
  8
0
100
AcDbLine
 62
7
  6
CONTINUOUS
 10
84.686548575
 20
18.7601590925
 11
84.6865485626
 21
15.8920038103
  0
LINE
  5
30D
100
AcDbEntity
  8
0
100
AcDbLine
 62
7
  6
CONTINUOUS
 10
84.9865485626
 20
172.7436284916
 11
84.9865485626
 21
169.4570673197
  0
LINE
  5
30E
100
AcDbEntity
  8
0
100
AcDbLine
 62
7
  6
CONTINUOUS
 10
84.9865485626
 20
15.6408152509
 11
84.9865485626
 21
18.9269403202
  0
LINE
  5
30F
100
AcDbEntity
  8
0
100
AcDbLine
 62
7
  6
CONTINUOUS
 10
87.4847465813
 20
173.7963265905
 11
87.4865485623
 21
169.4570673197
  0
LINE
  5
310
100
AcDbEntity
  8
0
100
AcDbLine
 62
7
  6
CONTINUOUS
 10
87.4865485623
 20
14.5876810297
 11
87.4865485623
 21
18.9269403202
  0
LINE
  5
311
100
AcDbEntity
  8
0
100
AcDbLine
 62
7
  6
CONTINUOUS
 10
87.7865485623
 20
15.8920038103
 11
87.7865485493
 21
18.7601590914
  0
LINE
  5
312
100
AcDbEntity
  8
0
100
AcDbLine
 62
7
  6
CONTINUOUS
 10
87.2870921278
 20
165.023445189
 11
87.3438778338
 21
167.1920038101
  0
LINE
  5
313
100
AcDbEntity
  8
0
100
AcDbLine
 62
7
  6
CONTINUOUS
 10
85.1887418123
 20
23.3618278152
 11
85.1319229711
 21
21.1920038101
  0
LINE
  5
314
100
AcDbEntity
  8
0
100
AcDbLine
 62
7
  6
CONTINUOUS
 10
84.9852818103
 20
15.5920038103
 11
84.9589826927
 21
14.5876810297
  0
LINE
  5
315
100
AcDbEntity
  8
0
100
AcDbLine
 62
7
  6
CONTINUOUS
 10
87.4093426378
 20
169.6920038101
 11
87.4819613029
 21
172.2921135885
  0
LINE
  5
316
100
AcDbEntity
  8
0
100
AcDbLine
 62
7
  6
CONTINUOUS
 10
85.0664581672
 20
18.6920038101
 11
84.9924953663
 21
16.0918614958
  0
LINE
  5
317
100
AcDbEntity
  8
0
100
AcDbLine
 62
7
  6
CONTINUOUS
 10
19.0879004024
 20
24.8920038101
 11
18.5879004024
 21
24.3920038101
  0
LINE
  5
318
100
AcDbEntity
  8
0
100
AcDbLine
 62
7
  6
CONTINUOUS
 10
17.2563321988
 20
107.9741190674
 11
19.8629004025
 21
107.9741192441
  0
LINE
  5
319
100
AcDbEntity
  8
0
100
AcDbLine
 62
7
  6
CONTINUOUS
 10
117.6629004002
 20
107.9741192441
 11
120.2693260853
 21
107.9741185645
  0
LINE
  5
31A
100
AcDbEntity
  8
0
100
AcDbLine
 62
7
  6
CONTINUOUS
 10
17.7379004024
 20
111.0920038101
 11
18.9968749987
 21
111.0920038101
  0
LINE
  5
31B
100
AcDbEntity
  8
0
100
AcDbLine
 62
7
  6
CONTINUOUS
 10
20.7289258062
 20
111.0920038101
 11
21.9879004024
 21
111.0920038101
  0
LINE
  5
31C
100
AcDbEntity
  8
0
100
AcDbLine
 62
7
  6
CONTINUOUS
 10
115.5379004024
 20
111.0920038101
 11
116.7968749987
 21
111.0920038101
  0
LINE
  5
31D
100
AcDbEntity
  8
0
100
AcDbLine
 62
7
  6
CONTINUOUS
 10
118.5289258062
 20
111.0920038101
 11
119.7879004024
 21
111.0920038101
  0
LINE
  5
31E
100
AcDbEntity
  8
0
100
AcDbLine
 62
7
  6
CONTINUOUS
 10
119.7879004024
 20
112.0920038101
 11
118.5289258062
 21
112.0920038101
  0
LINE
  5
31F
100
AcDbEntity
  8
0
100
AcDbLine
 62
7
  6
CONTINUOUS
 10
116.7968749987
 20
112.0920038101
 11
115.5379004024
 21
112.0920038101
  0
LINE
  5
320
100
AcDbEntity
  8
0
100
AcDbLine
 62
7
  6
CONTINUOUS
 10
21.9879004024
 20
112.0920038101
 11
20.7289258062
 21
112.0920038101
  0
LINE
  5
321
100
AcDbEntity
  8
0
100
AcDbLine
 62
7
  6
CONTINUOUS
 10
18.9968749987
 20
112.0920038101
 11
17.7379004024
 21
112.0920038101
  0
LINE
  5
322
100
AcDbEntity
  8
0
100
AcDbLine
 62
7
  6
CONTINUOUS
 10
93.2129004024
 20
14.8620038101
 11
93.2129004024
 21
15.5920038103
  0
LINE
  5
323
100
AcDbEntity
  8
0
100
AcDbLine
 62
7
  6
CONTINUOUS
 10
93.2129004024
 20
172.7920038099
 11
93.2129004024
 21
173.5220038101
  0
LINE
  5
324
100
AcDbEntity
  8
0
100
AcDbLine
 62
7
  6
CONTINUOUS
 10
81.7963679328
 20
75.2090871132
 11
82.2963679328
 21
75.7090871132
  0
LINE
  5
325
100
AcDbEntity
  8
0
100
AcDbLine
 62
7
  6
CONTINUOUS
 10
16.3879004024
 20
115.2098892449
 11
19.8629004025
 21
115.2098883388
  0
LINE
  5
326
100
AcDbEntity
  8
0
100
AcDbLine
 62
7
  6
CONTINUOUS
 10
117.6629004024
 20
115.2098883388
 11
121.1129004024
 21
115.2098885727
  0
LINE
  5
327
100
AcDbEntity
  8
0
100
AcDbLine
 62
7
  6
CONTINUOUS
 10
96.3879004024
 20
174.7920038101
 11
96.3879004024
 21
173.5220038101
  0
LINE
  5
328
100
AcDbEntity
  8
0
100
AcDbLine
 62
7
  6
CONTINUOUS
 10
96.3879004024
 20
14.8620038101
 11
96.3879004024
 21
13.5920038101
  0
LINE
  5
329
100
AcDbEntity
  8
0
100
AcDbLine
 62
7
  6
CONTINUOUS
 10
97.7379004024
 20
15.5920038103
 11
97.7379004024
 21
15.8920038103
  0
LINE
  5
32A
100
AcDbEntity
  8
0
100
AcDbLine
 62
7
  6
CONTINUOUS
 10
98.4379004026
 20
16.5920038129
 11
98.4379004026
 21
24.1920038402
  0
LINE
  5
32B
100
AcDbEntity
  8
0
100
AcDbLine
 62
7
  6
CONTINUOUS
 10
98.7379004024
 20
171.7920038099
 11
98.7379004024
 21
164.1920038099
  0
LINE
  5
32C
100
AcDbEntity
  8
0
100
AcDbLine
 62
7
  6
CONTINUOUS
 10
98.7379004024
 20
24.1920038098
 11
98.7379004024
 21
16.5920038103
  0
LINE
  5
32D
100
AcDbEntity
  8
0
100
AcDbLine
 62
7
  6
CONTINUOUS
 10
99.4379004024
 20
166.0064532819
 11
99.4379004024
 21
161.6475543383
  0
LINE
  5
32E
100
AcDbEntity
  8
0
100
AcDbLine
 62
7
  6
CONTINUOUS
 10
99.4379004024
 20
22.3775543383
 11
99.4379004024
 21
26.7364532819
  0
LINE
  5
32F
100
AcDbEntity
  8
0
100
AcDbLine
 62
7
  6
CONTINUOUS
 10
99.7629004024
 20
173.5220038101
 11
99.7629004024
 21
172.7920038099
  0
LINE
  5
330
100
AcDbEntity
  8
0
100
AcDbLine
 62
7
  6
CONTINUOUS
 10
99.7629004024
 20
14.8620038101
 11
99.7629004024
 21
15.5920038103
  0
LINE
  5
331
100
AcDbEntity
  8
0
100
AcDbLine
 62
7
  6
CONTINUOUS
 10
114.9339245936
 20
109.2167607027
 11
114.3557561615
 21
108.4495052759
  0
LINE
  5
332
100
AcDbEntity
  8
0
100
AcDbLine
 62
7
  6
CONTINUOUS
 10
115.5537093894
 20
107.5467826587
 11
116.1318778789
 21
108.3140381594
  0
LINE
  5
333
100
AcDbEntity
  8
0
100
AcDbLine
 62
7
  6
CONTINUOUS
 10
81.7963674329
 20
67.2227307297
 11
82.2963679328
 21
67.7227307297
  0
LINE
  5
334
100
AcDbEntity
  8
0
100
AcDbLine
 62
7
  6
CONTINUOUS
 10
61.5129004024
 20
120.7281193556
 11
76.0129004024
 21
120.7281193556
  0
LINE
  5
335
100
AcDbEntity
  8
0
100
AcDbLine
 62
7
  6
CONTINUOUS
 10
81.5129004024
 20
156.7920038101
 11
81.6433662234
 21
156.2605806873
  0
LINE
  5
336
100
AcDbEntity
  8
0
100
AcDbLine
 62
7
  6
CONTINUOUS
 10
107.7629004024
 20
173.5220038101
 11
107.7629004024
 21
172.7920038099
  0
LINE
  5
337
100
AcDbEntity
  8
0
100
AcDbLine
 62
7
  6
CONTINUOUS
 10
107.7629004024
 20
14.8620038101
 11
107.7629004024
 21
15.5920038103
  0
LINE
  5
338
100
AcDbEntity
  8
0
100
AcDbLine
 62
7
  6
CONTINUOUS
 10
56.2362128827
 20
32.0920038101
 11
56.3049303884
 21
32.1618861389
  0
LINE
  5
339
100
AcDbEntity
  8
0
100
AcDbLine
 62
7
  6
CONTINUOUS
 10
61.5129004024
 20
127.3737526293
 11
76.0129004024
 21
127.3737526293
  0
LINE
  5
33A
100
AcDbEntity
  8
0
100
AcDbLine
 62
7
  6
CONTINUOUS
 10
61.5129004024
 20
131.1316859849
 11
76.0129004024
 21
131.1316859849
  0
LINE
  5
33B
100
AcDbEntity
  8
0
100
AcDbLine
 62
7
  6
CONTINUOUS
 10
114.3557561615
 20
108.4495052759
 11
115.5537093894
 21
107.5467826587
  0
LINE
  5
33C
100
AcDbEntity
  8
0
100
AcDbLine
 62
7
  6
CONTINUOUS
 10
108.4379004024
 20
25.3980934952
 11
108.4379004024
 21
22.3775543383
  0
LINE
  5
33D
100
AcDbEntity
  8
0
100
AcDbLine
 62
7
  6
CONTINUOUS
 10
108.4379004024
 20
163.046710724
 11
108.4379004024
 21
166.0064532819
  0
LINE
  5
33E
100
AcDbEntity
  8
0
100
AcDbLine
 62
7
  6
CONTINUOUS
 10
108.7372712985
 20
139.0612768237
 11
108.737894807
 21
139.8612768237
  0
LINE
  5
33F
100
AcDbEntity
  8
0
100
AcDbLine
 62
7
  6
CONTINUOUS
 10
108.7379004024
 20
16.5920038102
 11
108.7379004024
 21
24.1920038102
  0
LINE
  5
340
100
AcDbEntity
  8
0
100
AcDbLine
 62
7
  6
CONTINUOUS
 10
108.7379004024
 20
164.1920038099
 11
108.7379004024
 21
171.7920038099
  0
LINE
  5
341
100
AcDbEntity
  8
0
100
AcDbLine
 62
7
  6
CONTINUOUS
 10
109.0379004023
 20
24.1920038238
 11
109.0379004023
 21
16.5920038123
  0
LINE
  5
342
100
AcDbEntity
  8
0
100
AcDbLine
 62
7
  6
CONTINUOUS
 10
109.7379004024
 20
15.8920038326
 11
109.7379004024
 21
15.5920038103
  0
LINE
  5
343
100
AcDbEntity
  8
0
100
AcDbLine
 62
7
  6
CONTINUOUS
 10
111.0879004024
 20
13.5920038101
 11
111.0879004024
 21
14.8620038101
  0
LINE
  5
344
100
AcDbEntity
  8
0
100
AcDbLine
 62
7
  6
CONTINUOUS
 10
111.0879004024
 20
173.5220038101
 11
111.0879004024
 21
174.7920038101
  0
LINE
  5
345
100
AcDbEntity
  8
0
100
AcDbLine
 62
7
  6
CONTINUOUS
 10
113.2321591025
 20
72.2183319153
 11
113.2321735088
 21
111.5920036663
  0
LINE
  5
346
100
AcDbEntity
  8
0
100
AcDbLine
 62
7
  6
CONTINUOUS
 10
113.4321330423
 20
134.3645168827
 11
113.4321735019
 21
112.9081689327
  0
LINE
  5
347
100
AcDbEntity
  8
0
100
AcDbLine
 62
7
  6
CONTINUOUS
 10
113.7321735019
 20
72.2176388011
 11
113.7321735019
 21
109.5473228315
  0
LINE
  5
348
100
AcDbEntity
  8
0
100
AcDbLine
 62
7
  6
CONTINUOUS
 10
113.7321735019
 20
113.6366865569
 11
113.7321735019
 21
134.3664693718
  0
LINE
  5
349
100
AcDbEntity
  8
0
100
AcDbLine
 62
7
  6
CONTINUOUS
 10
114.2321479704
 20
134.366417654
 11
114.2321735019
 21
113.5105258384
  0
LINE
  5
34A
100
AcDbEntity
  8
0
100
AcDbLine
 62
7
  6
CONTINUOUS
 10
114.2321735019
 20
109.6734817818
 11
114.2325350554
 21
72.2142766141
  0
LINE
  5
34B
100
AcDbEntity
  8
0
100
AcDbLine
 62
7
  6
CONTINUOUS
 10
114.3129004024
 20
173.5220038101
 11
114.3129004024
 21
172.7920038099
  0
LINE
  5
34C
100
AcDbEntity
  8
0
100
AcDbLine
 62
7
  6
CONTINUOUS
 10
114.3129004024
 20
15.5920038103
 11
114.3129004024
 21
14.8620038101
  0
LINE
  5
34D
100
AcDbEntity
  8
0
100
AcDbLine
 62
7
  6
CONTINUOUS
 10
108.7372619362
 20
67.7227307297
 11
108.7374501945
 21
66.7227307297
  0
LINE
  5
34E
100
AcDbEntity
  8
0
100
AcDbLine
 62
7
  6
CONTINUOUS
 10
120.6129004024
 20
151.169750694
 11
120.6765562845
 21
151.6656820689
  0
LINE
  5
34F
100
AcDbEntity
  8
0
100
AcDbLine
 62
7
  6
CONTINUOUS
 10
120.1963644097
 20
151.223215684
 11
120.2756520125
 21
151.7171406302
  0
LINE
  5
350
100
AcDbEntity
  8
0
100
AcDbLine
 62
7
  6
CONTINUOUS
 10
52.5035485626
 20
15.5920038103
 11
52.8035485626
 21
15.8920038103
  0
LINE
  5
351
100
AcDbEntity
  8
0
100
AcDbLine
 62
7
  6
CONTINUOUS
 10
24.0936272873
 20
134.3663746028
 11
23.2936272873
 21
134.3669980948
  0
LINE
  5
352
100
AcDbEntity
  8
0
100
AcDbLine
 62
7
  6
CONTINUOUS
 10
28.7903979777
 20
139.061236076
 11
108.7359426783
 21
139.0612489599
  0
LINE
  5
353
100
AcDbEntity
  8
0
100
AcDbLine
 62
7
  6
CONTINUOUS
 10
108.7373445582
 20
139.3612768237
 11
28.7884347818
 21
139.3612768237
  0
LINE
  5
354
100
AcDbEntity
  8
0
100
AcDbLine
 62
7
  6
CONTINUOUS
 10
28.7884864856
 20
139.8612512913
 11
108.7380882808
 21
139.8612512898
  0
LINE
  5
355
100
AcDbEntity
  8
0
100
AcDbLine
 62
7
  6
CONTINUOUS
 10
113.4321735019
 20
134.3663753815
 11
114.2321735019
 21
134.3669981256
  0
LINE
  5
356
100
AcDbEntity
  8
0
100
AcDbLine
 62
7
  6
CONTINUOUS
 10
119.5810402296
 20
166.9350228475
 11
119.5423443605
 21
169.1519077081
  0
LINE
  5
357
100
AcDbEntity
  8
0
100
AcDbLine
 62
7
  6
CONTINUOUS
 10
115.5379004024
 20
112.0920038101
 11
115.5379004024
 21
111.0920038101
  0
LINE
  5
358
100
AcDbEntity
  8
0
100
AcDbLine
 62
7
  6
CONTINUOUS
 10
115.7379004024
 20
32.0920038101
 11
115.7379004024
 21
36.9920038101
  0
LINE
  5
359
100
AcDbEntity
  8
0
100
AcDbLine
 62
7
  6
CONTINUOUS
 10
115.7629004024
 20
24.7920038101
 11
115.7629004024
 21
31.8459456566
  0
LINE
  5
35A
100
AcDbEntity
  8
0
100
AcDbLine
 62
7
  6
CONTINUOUS
 10
116.0629004024
 20
31.5459456566
 11
116.0629004024
 21
25.0920038101
  0
LINE
  5
35B
100
AcDbEntity
  8
0
100
AcDbLine
 62
7
  6
CONTINUOUS
 10
116.0629004024
 20
156.2920038101
 11
116.0629004024
 21
163.2920038101
  0
LINE
  5
35C
100
AcDbEntity
  8
0
100
AcDbLine
 62
7
  6
CONTINUOUS
 10
116.2379004024
 20
31.5459456566
 11
116.2379004024
 21
36.4920038101
  0
LINE
  5
35D
100
AcDbEntity
  8
0
100
AcDbLine
 62
7
  6
CONTINUOUS
 10
116.4128388626
 20
31.7020038103
 11
116.4128388626
 21
31.5459456566
  0
LINE
  5
35E
100
AcDbEntity
  8
0
100
AcDbLine
 62
7
  6
CONTINUOUS
 10
117.1004004024
 20
114.3011393247
 11
117.1004004024
 21
112.4188010948
  0
LINE
  5
35F
100
AcDbEntity
  8
0
100
AcDbLine
 62
7
  6
CONTINUOUS
 10
117.1004004024
 20
110.7652065254
 11
117.1004004024
 21
108.8828682955
  0
LINE
  5
360
100
AcDbEntity
  8
0
100
AcDbLine
 62
7
  6
CONTINUOUS
 10
117.5629004024
 20
25.0920038101
 11
117.5629004024
 21
26.4600425771
  0
LINE
  5
361
100
AcDbEntity
  8
0
100
AcDbLine
 62
7
  6
CONTINUOUS
 10
117.5629004024
 20
161.2920038101
 11
117.5629004024
 21
163.2920038101
  0
LINE
  5
362
100
AcDbEntity
  8
0
100
AcDbLine
 62
7
  6
CONTINUOUS
 10
117.8629004025
 20
24.7920038101
 11
117.8629004246
 21
26.4600412348
  0
LINE
  5
363
100
AcDbEntity
  8
0
100
AcDbLine
 62
7
  6
CONTINUOUS
 10
118.2254004024
 20
108.8828682955
 11
118.2254004024
 21
110.7652065254
  0
LINE
  5
364
100
AcDbEntity
  8
0
100
AcDbLine
 62
7
  6
CONTINUOUS
 10
118.2254004024
 20
112.4188010948
 11
118.2254004024
 21
114.3011393247
  0
LINE
  5
365
100
AcDbEntity
  8
0
100
AcDbLine
 62
7
  6
CONTINUOUS
 10
118.5515485622
 20
15.5920038103
 11
118.5515485622
 21
15.8920038326
  0
LINE
  5
366
100
AcDbEntity
  8
0
100
AcDbLine
 62
7
  6
CONTINUOUS
 10
119.4908420123
 20
172.1351186809
 11
119.4908420123
 21
173.7963265905
  0
LINE
  5
367
100
AcDbEntity
  8
0
100
AcDbLine
 62
7
  6
CONTINUOUS
 10
119.5408420123
 20
14.5876810297
 11
119.5408420123
 21
16.2815323656
  0
LINE
  5
368
100
AcDbEntity
  8
0
100
AcDbLine
 62
7
  6
CONTINUOUS
 10
119.5829004024
 20
171.7920038101
 11
119.5829004024
 21
169.1875512242
  0
LINE
  5
369
100
AcDbEntity
  8
0
100
AcDbLine
 62
7
  6
CONTINUOUS
 10
119.5829004024
 20
19.1964563959
 11
119.5829004024
 21
18.6910559201
  0
LINE
  5
36A
100
AcDbEntity
  8
0
100
AcDbLine
 62
7
  6
CONTINUOUS
 10
119.6129004124
 20
29.0520464214
 11
119.6129004024
 21
26.7920038101
  0
LINE
  5
36B
100
AcDbEntity
  8
0
100
AcDbLine
 62
7
  6
CONTINUOUS
 10
119.7879004024
 20
111.0920038101
 11
119.7879004024
 21
112.0920038101
  0
LINE
  5
36C
100
AcDbEntity
  8
0
100
AcDbLine
 62
7
  6
CONTINUOUS
 10
119.8129004024
 20
23.5168749407
 11
119.8129004024
 21
26.5920038099
  0
LINE
  5
36D
100
AcDbEntity
  8
0
100
AcDbLine
 62
7
  6
CONTINUOUS
 10
120.0878714067
 20
166.5565505725
 11
120.0879004024
 21
165.0594324226
  0
LINE
  5
36E
100
AcDbEntity
  8
0
100
AcDbLine
 62
7
  6
CONTINUOUS
 10
120.1129004024
 20
21.8420038101
 11
120.1129004024
 21
29.0520464241
  0
LINE
  5
36F
100
AcDbEntity
  8
0
100
AcDbLine
 62
7
  6
CONTINUOUS
 10
120.1129004024
 20
159.0360166482
 11
120.1129004024
 21
165.047009378
  0
LINE
  5
370
100
AcDbEntity
  8
0
100
AcDbLine
 62
7
  6
CONTINUOUS
 10
120.6129004163
 20
34.7283461404
 11
120.6129004024
 21
64.4920038101
  0
LINE
  5
371
100
AcDbEntity
  8
0
100
AcDbLine
 62
7
  6
CONTINUOUS
 10
120.6129004024
 20
65.6442295412
 11
120.6129004024
 21
107.9967792231
  0
LINE
  5
372
100
AcDbEntity
  8
0
100
AcDbLine
 62
7
  6
CONTINUOUS
 10
120.6129004024
 20
115.2098885489
 11
120.6129004024
 21
151.169750694
  0
LINE
  5
373
100
AcDbEntity
  8
0
100
AcDbLine
 62
7
  6
CONTINUOUS
 10
120.7129004024
 20
65.6413708912
 11
120.7129004024
 21
64.4920038101
  0
LINE
  5
374
100
AcDbEntity
  8
0
100
AcDbLine
 62
7
  6
CONTINUOUS
 10
120.7129004024
 20
49.0920038101
 11
120.7129004024
 21
48.7920038101
  0
LINE
  5
375
100
AcDbEntity
  8
0
100
AcDbLine
 62
7
  6
CONTINUOUS
 10
119.2775505057
 20
16.5920038101
 11
119.2829004024
 21
19.0634328847
  0
LINE
  5
376
100
AcDbEntity
  8
0
100
AcDbLine
 62
7
  6
CONTINUOUS
 10
121.1129004024
 20
145.5950532244
 11
16.3879004024
 21
145.5950532244
  0
LINE
  5
377
100
AcDbEntity
  8
0
100
AcDbLine
 62
7
  6
CONTINUOUS
 10
16.8879004024
 20
146.0950532244
 11
120.6129004024
 21
146.0950532244
  0
LINE
  5
378
100
AcDbEntity
  8
0
100
AcDbLine
 62
7
  6
CONTINUOUS
 10
121.1129004024
 20
34.288997245
 11
121.1129004024
 21
154.0950103561
  0
LINE
  5
379
100
AcDbEntity
  8
0
100
AcDbLine
 62
7
  6
CONTINUOUS
 10
119.5408420123
 20
16.2815323656
 11
119.5829004024
 21
18.6910559201
  0
LINE
  5
37A
100
AcDbEntity
  8
0
100
AcDbLine
 62
7
  6
CONTINUOUS
 10
119.5916348458
 20
19.191451846
 11
119.6310402296
 21
21.4489847727
  0
LINE
  5
37B
100
AcDbEntity
  8
0
100
AcDbLine
 62
7
  6
CONTINUOUS
 10
121.1129004024
 20
151.169750694
 11
120.6129004024
 21
151.169750694
  0
LINE
  5
37C
100
AcDbEntity
  8
0
100
AcDbLine
 62
7
  6
CONTINUOUS
 10
17.2972192068
 20
151.2171419633
 11
16.3879004024
 21
151.2171419633
  0
LINE
  5
37D
100
AcDbEntity
  8
0
100
AcDbLine
 62
7
  6
CONTINUOUS
 10
16.8879004024
 20
151.7171419633
 11
17.2501578338
 21
151.7171419633
  0
LINE
  5
37E
100
AcDbEntity
  8
0
100
AcDbLine
 62
7
  6
CONTINUOUS
 10
121.1129004024
 20
152.2920038101
 11
118.7175320597
 21
152.2920038101
  0
LINE
  5
37F
100
AcDbEntity
  8
0
100
AcDbLine
 62
7
  6
CONTINUOUS
 10
16.3879004024
 20
152.2920038101
 11
18.8082687451
 21
152.2920038101
  0
LINE
  5
380
100
AcDbEntity
  8
0
100
AcDbLine
 62
7
  6
CONTINUOUS
 10
115.6817804431
 20
155.7920038101
 11
91.3148802123
 21
155.7920038101
  0
LINE
  5
381
100
AcDbEntity
  8
0
100
AcDbLine
 62
7
  6
CONTINUOUS
 10
81.2109205925
 20
155.7920038101
 11
21.8440203617
 21
155.7920038101
  0
LINE
  5
382
100
AcDbEntity
  8
0
100
AcDbLine
 62
7
  6
CONTINUOUS
 10
21.4086656517
 20
156.2920038101
 11
81.1372297146
 21
156.2920038101
  0
LINE
  5
383
100
AcDbEntity
  8
0
100
AcDbLine
 62
7
  6
CONTINUOUS
 10
91.3885710902
 20
156.2920038101
 11
116.1171351532
 21
156.2920038101
  0
LINE
  5
384
100
AcDbEntity
  8
0
100
AcDbLine
 62
7
  6
CONTINUOUS
 10
120.1963647179
 20
151.2232156445
 11
120.6129004024
 21
151.169750694
  0
LINE
  5
385
100
AcDbEntity
  8
0
100
AcDbLine
 62
7
  6
CONTINUOUS
 10
120.2756517507
 20
151.7171406638
 11
120.6765562844
 21
151.665682069
  0
LINE
  5
386
100
AcDbEntity
  8
0
100
AcDbLine
 62
7
  6
CONTINUOUS
 10
87.4865485623
 20
15.5920038103
 11
87.7865485623
 21
15.8920038103
  0
LINE
  5
387
100
AcDbEntity
  8
0
100
AcDbLine
 62
7
  6
CONTINUOUS
 10
120.1129004024
 20
161.2920038101
 11
116.0629004024
 21
161.2920038101
  0
LINE
  5
388
100
AcDbEntity
  8
0
100
AcDbLine
 62
7
  6
CONTINUOUS
 10
21.4379004024
 20
161.2920038101
 11
17.3629004024
 21
161.2920038101
  0
LINE
  5
389
100
AcDbEntity
  8
0
100
AcDbLine
 62
7
  6
CONTINUOUS
 10
117.5629004024
 20
163.2920038101
 11
116.0629004024
 21
163.2920038101
  0
LINE
  5
38A
100
AcDbEntity
  8
0
100
AcDbLine
 62
7
  6
CONTINUOUS
 10
21.4629004024
 20
163.2920038101
 11
19.9629004024
 21
163.2920038101
  0
LINE
  5
38B
100
AcDbEntity
  8
0
100
AcDbLine
 62
7
  6
CONTINUOUS
 10
119.8749946923
 20
29.4778475828
 11
119.6129023551
 21
29.0520452733
  0
LINE
  5
38C
100
AcDbEntity
  8
0
100
AcDbLine
 62
7
  6
CONTINUOUS
 10
92.0464607886
 20
173.7963265905
 11
96.3949165479
 21
174.7603560229
  0
LINE
  5
38D
100
AcDbEntity
  8
0
100
AcDbLine
 62
7
  6
CONTINUOUS
 10
17.3879004024
 20
166.5420038101
 11
17.4948214972
 21
166.5420038101
  0
LINE
  5
38E
100
AcDbEntity
  8
0
100
AcDbLine
 62
7
  6
CONTINUOUS
 10
50.1319229711
 20
167.1920038101
 11
52.3438778338
 21
167.1920038101
  0
LINE
  5
38F
100
AcDbEntity
  8
0
100
AcDbLine
 62
7
  6
CONTINUOUS
 10
85.1319229711
 20
167.1920038101
 11
87.3438778338
 21
167.1920038101
  0
LINE
  5
390
100
AcDbEntity
  8
0
100
AcDbLine
 62
7
  6
CONTINUOUS
 10
87.4093426378
 20
169.6920038101
 11
85.0664581672
 21
169.6920038101
  0
LINE
  5
391
100
AcDbEntity
  8
0
100
AcDbLine
 62
7
  6
CONTINUOUS
 10
52.4093426377
 20
169.6920038101
 11
50.0664581672
 21
169.6920038101
  0
LINE
  5
392
100
AcDbEntity
  8
0
100
AcDbLine
 62
7
  6
CONTINUOUS
 10
119.5829004024
 20
171.7920038101
 11
119.5515485621
 21
171.7920038101
  0
LINE
  5
393
100
AcDbEntity
  8
0
100
AcDbLine
 62
7
  6
CONTINUOUS
 10
41.080884257
 20
174.760356023
 11
45.4293400165
 21
173.7963265905
  0
LINE
  5
394
100
AcDbEntity
  8
0
100
AcDbLine
 62
7
  6
CONTINUOUS
 10
116.0629004024
 20
25.0920038101
 11
115.7629004024
 21
24.7920038101
  0
LINE
  5
395
100
AcDbEntity
  8
0
100
AcDbLine
 62
7
  6
CONTINUOUS
 10
57.0464607886
 20
173.7963265905
 11
61.3949165479
 21
174.7603560229
  0
LINE
  5
396
100
AcDbEntity
  8
0
100
AcDbLine
 62
7
  6
CONTINUOUS
 10
108.7379004024
 20
172.0170038101
 11
98.7379004024
 21
172.0170038101
  0
LINE
  5
397
100
AcDbEntity
  8
0
100
AcDbLine
 62
7
  6
CONTINUOUS
 10
73.7379004024
 20
172.0170038101
 11
63.7379004024
 21
172.0170038101
  0
LINE
  5
398
100
AcDbEntity
  8
0
100
AcDbLine
 62
7
  6
CONTINUOUS
 10
38.7379004024
 20
172.0170038101
 11
28.7379004024
 21
172.0170038101
  0
LINE
  5
399
100
AcDbEntity
  8
0
100
AcDbLine
 62
7
  6
CONTINUOUS
 10
108.9379004024
 20
172.3920038099
 11
98.5379004024
 21
172.3920038099
  0
LINE
  5
39A
100
AcDbEntity
  8
0
100
AcDbLine
 62
7
  6
CONTINUOUS
 10
73.9379004024
 20
172.3920038099
 11
63.7379004024
 21
172.3920038099
  0
LINE
  5
39B
100
AcDbEntity
  8
0
100
AcDbLine
 62
7
  6
CONTINUOUS
 10
17.9849587925
 20
172.7920038099
 11
49.9852818103
 21
172.7920038099
  0
LINE
  5
39C
100
AcDbEntity
  8
0
100
AcDbLine
 62
7
  6
CONTINUOUS
 10
52.5035485626
 20
172.7920038099
 11
84.9852818103
 21
172.7920038099
  0
LINE
  5
39D
100
AcDbEntity
  8
0
100
AcDbLine
 62
7
  6
CONTINUOUS
 10
87.4865485623
 20
172.7920038099
 11
119.4908420123
 21
172.7920038099
  0
LINE
  5
39E
100
AcDbEntity
  8
0
100
AcDbLine
 62
7
  6
CONTINUOUS
 10
20.9379004024
 20
173.5220038101
 11
46.5879004024
 21
173.5220038101
  0
LINE
  5
39F
100
AcDbEntity
  8
0
100
AcDbLine
 62
7
  6
CONTINUOUS
 10
55.9379004024
 20
173.5220038101
 11
81.5879004024
 21
173.5220038101
  0
LINE
  5
3A0
100
AcDbEntity
  8
0
100
AcDbLine
 62
7
  6
CONTINUOUS
 10
90.9379004024
 20
173.5220038101
 11
116.5879004024
 21
173.5220038101
  0
LINE
  5
3A1
100
AcDbEntity
  8
0
100
AcDbLine
 62
7
  6
CONTINUOUS
 10
119.4908420123
 20
173.7963265905
 11
115.4293400165
 21
173.7963265905
  0
LINE
  5
3A2
100
AcDbEntity
  8
0
100
AcDbLine
 62
7
  6
CONTINUOUS
 10
92.0464607886
 20
173.7963265905
 11
87.4847465813
 21
173.7963265905
  0
LINE
  5
3A3
100
AcDbEntity
  8
0
100
AcDbLine
 62
7
  6
CONTINUOUS
 10
84.9589826927
 20
173.7963265905
 11
80.4293400165
 21
173.7963265905
  0
LINE
  5
3A4
100
AcDbEntity
  8
0
100
AcDbLine
 62
7
  6
CONTINUOUS
 10
57.0464607886
 20
173.7963265905
 11
52.500457568
 21
173.7963265905
  0
LINE
  5
3A5
100
AcDbEntity
  8
0
100
AcDbLine
 62
7
  6
CONTINUOUS
 10
49.9589826927
 20
173.7963265905
 11
45.4293400165
 21
173.7963265905
  0
LINE
  5
3A6
100
AcDbEntity
  8
0
100
AcDbLine
 62
7
  6
CONTINUOUS
 10
22.0464607886
 20
173.7963265905
 11
17.9849587925
 21
173.7963265905
  0
LINE
  5
3A7
100
AcDbEntity
  8
0
100
AcDbLine
 62
7
  6
CONTINUOUS
 10
111.0879004024
 20
174.7920038101
 11
96.3879004024
 21
174.7920038101
  0
LINE
  5
3A8
100
AcDbEntity
  8
0
100
AcDbLine
 62
7
  6
CONTINUOUS
 10
76.0879004024
 20
174.7920038101
 11
61.3879004024
 21
174.7920038101
  0
LINE
  5
3A9
100
AcDbEntity
  8
0
100
AcDbLine
 62
7
  6
CONTINUOUS
 10
41.0879004024
 20
174.7920038101
 11
26.3879004024
 21
174.7920038101
  0
LINE
  5
3AA
100
AcDbEntity
  8
0
100
AcDbLine
 62
7
  6
CONTINUOUS
 10
76.080884257
 20
174.760356023
 11
80.4293400165
 21
173.7963265905
  0
LINE
  5
3AB
100
AcDbEntity
  8
0
100
AcDbLine
 62
7
  6
CONTINUOUS
 10
22.0464607886
 20
173.7963265905
 11
26.3949165479
 21
174.7603560229
  0
LINE
  5
3AC
100
AcDbEntity
  8
0
100
AcDbLine
 62
7
  6
CONTINUOUS
 10
111.080884257
 20
174.760356023
 11
115.4293400165
 21
173.7963265905
  0
ARC
  5
3AD
100
AcDbEntity
  8
0
100
AcDbCircle
 62
7
  6
CONTINUOUS
 10
22.6505684634
 20
14.8582868944
 40
9.9923960912
100
AcDbArc
 50
119.9435391839
 51
121.9493369424
  0
ARC
  5
3AE
100
AcDbEntity
  8
0
100
AcDbCircle
 62
7
  6
CONTINUOUS
 10
33.7379004024
 20
24.1920038103
 40
5.3
100
AcDbArc
 50
0.0000023895
 51
180.0000021371
  0
ARC
  5
3AF
100
AcDbEntity
  8
0
100
AcDbCircle
 62
7
  6
CONTINUOUS
 10
33.7379004024
 20
24.1920038103
 40
5.0
100
AcDbArc
 50
0.0
 51
180.0000000159
  0
ARC
  5
3B0
100
AcDbEntity
  8
0
100
AcDbCircle
 62
7
  6
CONTINUOUS
 10
33.5379004024
 20
24.5570038101
 40
5.0
100
AcDbArc
 50
205.8419327632
 51
334.1580672368
  0
CIRCLE
  5
3B1
100
AcDbEntity
  8
0
100
AcDbCircle
 62
7
  6
CONTINUOUS
 10
33.7379004024
 20
24.3920038101
 40
4.0
  0
ARC
  5
3B2
100
AcDbEntity
  8
0
100
AcDbCircle
 62
7
  6
CONTINUOUS
 10
16.2379004024
 20
31.6920038101
 40
3.0999999564
100
AcDbArc
 50
301.6139693118
 51
77.8965512837
  0
ARC
  5
3B3
100
AcDbEntity
  8
0
100
AcDbCircle
 62
7
  6
CONTINUOUS
 10
16.2629004023
 20
21.0920038101
 40
2.8
100
AcDbArc
 50
314.7142471809
 51
59.9999999972
  0
ARC
  5
3B4
100
AcDbEntity
  8
0
100
AcDbCircle
 62
7
  6
CONTINUOUS
 10
16.2379004024
 20
31.6920038101
 40
2.5999999564
100
AcDbArc
 50
295.6385425924
 51
86.6926378135
  0
ARC
  5
3B5
100
AcDbEntity
  8
0
100
AcDbCircle
 62
7
  6
CONTINUOUS
 10
16.2629004023
 20
21.0920038101
 40
2.5
100
AcDbArc
 50
311.9182379619
 51
63.8961188597
  0
CIRCLE
  5
3B6
100
AcDbEntity
  8
0
100
AcDbCircle
 62
7
  6
CONTINUOUS
 10
20.8879004024
 20
18.8420038101
 40
1.5
  0
ARC
  5
3B7
100
AcDbEntity
  8
0
100
AcDbCircle
 62
7
  6
CONTINUOUS
 10
18.9329004024
 20
16.5920038103
 40
1.0
100
AcDbArc
 50
198.5381845166
 51
270.0000000049
  0
ARC
  5
3B8
100
AcDbEntity
  8
0
100
AcDbCircle
 62
7
  6
CONTINUOUS
 10
27.7379004024
 20
16.5920038103
 40
1.0
100
AcDbArc
 50
269.9999999999
 51
360.0
  0
ARC
  5
3B9
100
AcDbEntity
  8
0
100
AcDbCircle
 62
7
  6
CONTINUOUS
 10
39.7379004024
 20
16.5920038103
 40
1.0
100
AcDbArc
 50
180.0000000001
 51
270.0000000006
  0
ARC
  5
3BA
100
AcDbEntity
  8
0
100
AcDbCircle
 62
7
  6
CONTINUOUS
 10
20.9379004024
 20
15.8620038101
 40
1.0
100
AcDbArc
 50
197.4836876771
 51
270.0
  0
ARC
  5
3BB
100
AcDbEntity
  8
0
100
AcDbCircle
 62
7
  6
CONTINUOUS
 10
39.7379004024
 20
16.5920038103
 40
0.7
100
AcDbArc
 50
180.0000000005
 51
270.0
  0
ARC
  5
3BC
100
AcDbEntity
  8
0
100
AcDbCircle
 62
7
  6
CONTINUOUS
 10
27.7379004024
 20
16.5920038103
 40
0.7
100
AcDbArc
 50
270.0
 51
360.0
  0
ARC
  5
3BD
100
AcDbEntity
  8
0
100
AcDbCircle
 62
7
  6
CONTINUOUS
 10
18.9329004024
 20
16.5920038103
 40
0.7
100
AcDbArc
 50
180.0000000001
 51
270.0
  0
ARC
  5
3BE
100
AcDbEntity
  8
0
100
AcDbCircle
 62
7
  6
CONTINUOUS
 10
16.8879004024
 20
37.5920038101
 40
0.5
100
AcDbArc
 50
180.0
 51
270.0
  0
ARC
  5
3BF
100
AcDbEntity
  8
0
100
AcDbCircle
 62
7
  6
CONTINUOUS
 10
16.8879004024
 20
42.7889543958
 40
0.5
100
AcDbArc
 50
180.0
 51
270.0
  0
ARC
  5
3C0
100
AcDbEntity
  8
0
100
AcDbCircle
 62
7
  6
CONTINUOUS
 10
17.8629004024
 20
26.3920038101
 40
0.499999924
100
AcDbArc
 50
90.0000001179
 51
180.0000000007
  0
ARC
  5
3C1
100
AcDbEntity
  8
0
100
AcDbCircle
 62
7
  6
CONTINUOUS
 10
17.4948214972
 20
21.4420038101
 40
0.4
100
AcDbArc
 50
0.9999999999
 51
90.0
  0
ARC
  5
3C2
100
AcDbEntity
  8
0
100
AcDbCircle
 62
7
  6
CONTINUOUS
 10
18.7879004024
 20
26.5920038101
 40
0.3
100
AcDbArc
 50
0.0000000006
 51
90.0
  0
ARC
  5
3C3
100
AcDbEntity
  8
0
100
AcDbCircle
 62
7
  6
CONTINUOUS
 10
17.8629004024
 20
26.3920038101
 40
0.199999924
100
AcDbArc
 50
89.9998382345
 51
180.0001371058
  0
ARC
  5
3C4
100
AcDbEntity
  8
0
100
AcDbCircle
 62
7
  6
CONTINUOUS
 10
31.7839448862
 20
80.915538576
 40
33.6826169887
100
AcDbArc
 50
103.7227431182
 51
104.5999331163
  0
ARC
  5
3C5
100
AcDbEntity
  8
0
100
AcDbCircle
 62
7
  6
CONTINUOUS
 10
28.7891321751
 20
72.2174540576
 40
5.4954753713
100
AcDbArc
 50
179.9883350241
 51
269.9587202606
  0
ARC
  5
3C6
100
AcDbEntity
  8
0
100
AcDbCircle
 62
7
  6
CONTINUOUS
 10
28.7891321751
 20
72.2174540576
 40
4.9954753713
100
AcDbArc
 50
179.9983104454
 51
269.9925841062
  0
ARC
  5
3C7
100
AcDbEntity
  8
0
100
AcDbCircle
 62
7
  6
CONTINUOUS
 10
28.7883775114
 20
72.2183941936
 40
4.4956098913
100
AcDbArc
 50
179.9876995124
 51
270.0155464435
  0
ARC
  5
3C8
100
AcDbEntity
  8
0
100
AcDbCircle
 62
7
  6
CONTINUOUS
 10
45.06795436
 20
43.0153203448
 40
15.6226792911
100
AcDbArc
 50
316.5333886031
 51
318.1493395434
  0
ARC
  5
3C9
100
AcDbEntity
  8
0
100
AcDbCircle
 62
7
  6
CONTINUOUS
 10
57.3044224378
 20
42.9223901606
 40
15.4836379443
100
AcDbArc
 50
221.8498507208
 51
224.3847362682
  0
ARC
  5
3CA
100
AcDbEntity
  8
0
100
AcDbCircle
 62
7
  6
CONTINUOUS
 10
45.5393713467
 20
42.5707785402
 40
14.9747221177
100
AcDbArc
 50
315.965010162
 51
316.5270172059
  0
ARC
  5
3CB
100
AcDbEntity
  8
0
100
AcDbCircle
 62
7
  6
CONTINUOUS
 10
58.1868638225
 20
28.7966746668
 40
11.3891056899
100
AcDbArc
 50
240.0652578402
 51
241.7920956683
  0
ARC
  5
3CC
100
AcDbEntity
  8
0
100
AcDbCircle
 62
7
  6
CONTINUOUS
 10
44.7221118036
 20
28.0737903447
 40
10.5621228744
100
AcDbArc
 50
298.1402954225
 51
300.0023509865
  0
ARC
  5
3CD
100
AcDbEntity
  8
0
100
AcDbCircle
 62
7
  6
CONTINUOUS
 10
51.2379004024
 20
31.9920038101
 40
5.49999998
100
AcDbArc
 50
6.2629130663
 51
173.737086934
  0
ARC
  5
3CE
100
AcDbEntity
  8
0
100
AcDbCircle
 62
7
  6
CONTINUOUS
 10
51.2379004024
 20
31.9920038101
 40
5.4999999736
100
AcDbArc
 50
178.9582011368
 51
0.0167231953
  0
ARC
  5
3CF
100
AcDbEntity
  8
0
100
AcDbCircle
 62
7
  6
CONTINUOUS
 10
68.7379004024
 20
24.1920038103
 40
5.3
100
AcDbArc
 50
0.0000023895
 51
180.0000021371
  0
ARC
  5
3D0
100
AcDbEntity
  8
0
100
AcDbCircle
 62
7
  6
CONTINUOUS
 10
68.7379004024
 20
24.1920038103
 40
5.0
100
AcDbArc
 50
0.0
 51
180.0000000185
  0
ARC
  5
3D1
100
AcDbEntity
  8
0
100
AcDbCircle
 62
7
  6
CONTINUOUS
 10
68.7379004024
 20
24.5570038101
 40
5.0
100
AcDbArc
 50
205.8419327632
 51
334.1580672368
  0
ARC
  5
3D2
100
AcDbEntity
  8
0
100
AcDbCircle
 62
7
  6
CONTINUOUS
 10
51.2379004024
 20
31.9920038101
 40
4.9999999736
100
AcDbArc
 50
1.9335716203
 51
360.0
  0
CIRCLE
  5
3D3
100
AcDbEntity
  8
0
100
AcDbCircle
 62
7
  6
CONTINUOUS
 10
68.7379004024
 20
24.3920038101
 40
4.0
  0
CIRCLE
  5
3D4
100
AcDbEntity
  8
0
100
AcDbCircle
 62
7
  6
CONTINUOUS
 10
51.2379004024
 20
31.9920038101
 40
3.1375
  0
ARC
  5
3D5
100
AcDbEntity
  8
0
100
AcDbCircle
 62
7
  6
CONTINUOUS
 10
51.2535485628
 20
21.0920038101
 40
2.7999999558
100
AcDbArc
 50
303.6123748802
 51
236.3876251197
  0
ARC
  5
3D6
100
AcDbEntity
  8
0
100
AcDbCircle
 62
7
  6
CONTINUOUS
 10
51.2535485628
 20
21.0920038101
 40
2.4999999558
100
AcDbArc
 50
300.0000000865
 51
239.9999999135
  0
ARC
  5
3D7
100
AcDbEntity
  8
0
100
AcDbCircle
 62
7
  6
CONTINUOUS
 10
46.5879004024
 20
15.8620038101
 40
1.0
100
AcDbArc
 50
270.0
 51
342.5163123229
  0
ARC
  5
3D8
100
AcDbEntity
  8
0
100
AcDbCircle
 62
7
  6
CONTINUOUS
 10
55.9379004024
 20
15.8620038101
 40
1.0
100
AcDbArc
 50
197.4836876771
 51
270.0
  0
ARC
  5
3D9
100
AcDbEntity
  8
0
100
AcDbCircle
 62
7
  6
CONTINUOUS
 10
63.0626452724
 20
93.3938939449
 40
1.4191943417
100
AcDbArc
 50
89.9896989915
 51
98.0909732455
  0
ARC
  5
3DA
100
AcDbEntity
  8
0
100
AcDbCircle
 62
7
  6
CONTINUOUS
 10
62.8629004024
 20
79.3298245757
 40
0.8
100
AcDbArc
 50
180.0
 51
270.0
  0
ARC
  5
3DB
100
AcDbEntity
  8
0
100
AcDbCircle
 62
7
  6
CONTINUOUS
 10
28.7879060202
 20
134.3669980948
 40
5.4942276642
100
AcDbArc
 50
89.9939467266
 51
179.9979824445
  0
ARC
  5
3DC
100
AcDbEntity
  8
0
100
AcDbCircle
 62
7
  6
CONTINUOUS
 10
28.7879060202
 20
134.3669980948
 40
4.9942276642
100
AcDbArc
 50
89.9970319097
 51
180.0037429
  0
ARC
  5
3DD
100
AcDbEntity
  8
0
100
AcDbCircle
 62
7
  6
CONTINUOUS
 10
28.787944977
 20
134.3669318924
 40
4.6942628452
100
AcDbArc
 50
89.9700601901
 51
180.0230747895
  0
ARC
  5
3DE
100
AcDbEntity
  8
0
100
AcDbCircle
 62
7
  6
CONTINUOUS
 10
19.8629004024
 20
111.5920038101
 40
4.430726868
100
AcDbArc
 50
332.5174848223
 51
27.4825137337
  0
ARC
  5
3DF
100
AcDbEntity
  8
0
100
AcDbCircle
 62
7
  6
CONTINUOUS
 10
19.8629004024
 20
111.5920038101
 40
3.930726868
100
AcDbArc
 50
330.7853218624
 51
29.2146781376
  0
ARC
  5
3E0
100
AcDbEntity
  8
0
100
AcDbCircle
 62
7
  6
CONTINUOUS
 10
19.8629003982
 20
111.5920037915
 40
3.6178845474
100
AcDbArc
 50
64.9643750037
 51
89.9999999242
  0
ARC
  5
3E1
100
AcDbEntity
  8
0
100
AcDbCircle
 62
7
  6
CONTINUOUS
 10
19.8629003982
 20
111.5920037915
 40
3.6178845474
100
AcDbArc
 50
270.0000000672
 51
41.0356251278
  0
CIRCLE
  5
3E2
100
AcDbEntity
  8
0
100
AcDbCircle
 62
7
  6
CONTINUOUS
 10
19.8629004024
 20
111.5920038101
 40
2.8609778792
  0
ARC
  5
3E3
100
AcDbEntity
  8
0
100
AcDbCircle
 62
7
  6
CONTINUOUS
 10
19.8629004024
 20
111.5920038101
 40
2.7669155185
100
AcDbArc
 50
258.2702937622
 51
281.7297062378
  0
ARC
  5
3E4
100
AcDbEntity
  8
0
100
AcDbCircle
 62
7
  6
CONTINUOUS
 10
19.8629004024
 20
111.5920038101
 40
2.7669155185
100
AcDbArc
 50
78.2702937622
 51
101.7297062379
  0
ARC
  5
3E5
100
AcDbEntity
  8
0
100
AcDbCircle
 62
7
  6
CONTINUOUS
 10
19.8629004024
 20
111.5920038101
 40
1.0
100
AcDbArc
 50
30.0
 51
55.7711336722
  0
ARC
  5
3E6
100
AcDbEntity
  8
0
100
AcDbCircle
 62
7
  6
CONTINUOUS
 10
19.8629004024
 20
111.5920038101
 40
1.0
100
AcDbArc
 50
304.2288663277
 51
330.0
  0
ARC
  5
3E7
100
AcDbEntity
  8
0
100
AcDbCircle
 62
7
  6
CONTINUOUS
 10
19.8629004024
 20
111.5920038101
 40
1.0
100
AcDbArc
 50
210.0
 51
235.7711336723
  0
ARC
  5
3E8
100
AcDbEntity
  8
0
100
AcDbCircle
 62
7
  6
CONTINUOUS
 10
19.8629004024
 20
111.5920038101
 40
1.0
100
AcDbArc
 50
124.2288663278
 51
150.0
  0
ARC
  5
3E9
100
AcDbEntity
  8
0
100
AcDbCircle
 62
7
  6
CONTINUOUS
 10
31.948299664
 20
142.9198386557
 40
34.3543825293
100
AcDbArc
 50
255.4086424925
 51
256.2686795967
  0
ARC
  5
3EA
100
AcDbEntity
  8
0
100
AcDbCircle
 62
7
  6
CONTINUOUS
 10
9.416628477
 20
145.4108903517
 40
16.1928251301
100
AcDbArc
 50
39.8734006301
 51
42.2193921919
  0
ARC
  5
3EB
100
AcDbEntity
  8
0
100
AcDbCircle
 62
7
  6
CONTINUOUS
 10
16.2629004024
 20
156.7920038101
 40
5.67
100
AcDbArc
 50
280.5107231244
 51
349.8417902591
  0
ARC
  5
3EC
100
AcDbEntity
  8
0
100
AcDbCircle
 62
7
  6
CONTINUOUS
 10
16.2629004024
 20
156.7920038101
 40
5.17
100
AcDbArc
 50
281.0087488666
 51
354.4501476055
  0
ARC
  5
3ED
100
AcDbEntity
  8
0
100
AcDbCircle
 62
7
  6
CONTINUOUS
 10
33.5379004024
 20
163.8270038101
 40
5.0
100
AcDbArc
 50
25.8419327632
 51
154.1580672368
  0
ARC
  5
3EE
100
AcDbEntity
  8
0
100
AcDbCircle
 62
7
  6
CONTINUOUS
 10
33.7379004024
 20
164.1920038099
 40
5.0
100
AcDbArc
 50
180.0
 51
360.0
  0
CIRCLE
  5
3EF
100
AcDbEntity
  8
0
100
AcDbCircle
 62
7
  6
CONTINUOUS
 10
33.7379004024
 20
163.9920038101
 40
4.0
  0
ARC
  5
3F0
100
AcDbEntity
  8
0
100
AcDbCircle
 62
7
  6
CONTINUOUS
 10
16.3863392155
 20
156.6920038101
 40
2.59566994
100
AcDbArc
 50
270.0344610172
 51
65.347906714
  0
ARC
  5
3F1
100
AcDbEntity
  8
0
100
AcDbCircle
 62
7
  6
CONTINUOUS
 10
16.2790858667
 20
156.721593891
 40
2.5761497593
100
AcDbArc
 50
63.8114005733
 51
64.5061965052
  0
ARC
  5
3F2
100
AcDbEntity
  8
0
100
AcDbCircle
 62
7
  6
CONTINUOUS
 10
16.2629004023
 20
167.29200381
 40
2.5
100
AcDbArc
 50
296.1038811404
 51
48.0845867902
  0
CIRCLE
  5
3F3
100
AcDbEntity
  8
0
100
AcDbCircle
 62
7
  6
CONTINUOUS
 10
21.2629004024
 20
170.0920038101
 40
1.5
  0
ARC
  5
3F4
100
AcDbEntity
  8
0
100
AcDbCircle
 62
7
  6
CONTINUOUS
 10
20.9379004024
 20
172.5220038101
 40
1.0
100
AcDbArc
 50
90.0
 51
162.5163123253
  0
ARC
  5
3F5
100
AcDbEntity
  8
0
100
AcDbCircle
 62
7
  6
CONTINUOUS
 10
27.7379004024
 20
171.7920038099
 40
1.0
100
AcDbArc
 50
0.0
 51
90.0
  0
ARC
  5
3F6
100
AcDbEntity
  8
0
100
AcDbCircle
 62
7
  6
CONTINUOUS
 10
18.9329004024
 20
171.7920038099
 40
1.0
100
AcDbArc
 50
90.0
 51
180.0
  0
ARC
  5
3F7
100
AcDbEntity
  8
0
100
AcDbCircle
 62
7
  6
CONTINUOUS
 10
16.8879004024
 20
151.2171419633
 40
0.5
100
AcDbArc
 50
90.0
 51
180.0
  0
ARC
  5
3F8
100
AcDbEntity
  8
0
100
AcDbCircle
 62
7
  6
CONTINUOUS
 10
16.8879004024
 20
145.5950532244
 40
0.5
100
AcDbArc
 50
90.0
 51
180.0
  0
ARC
  5
3F9
100
AcDbEntity
  8
0
100
AcDbCircle
 62
7
  6
CONTINUOUS
 10
17.4948214972
 20
166.9420038101
 40
0.4
100
AcDbArc
 50
270.0
 51
358.9999999967
  0
ARC
  5
3FA
100
AcDbEntity
  8
0
100
AcDbCircle
 62
7
  6
CONTINUOUS
 10
63.0668831849
 20
97.3293962343
 40
4.2602345544
100
AcDbArc
 50
90.0535848269
 51
103.630750835
  0
ARC
  5
3FB
100
AcDbEntity
  8
0
100
AcDbCircle
 62
7
  6
CONTINUOUS
 10
68.7379004024
 20
163.8270038101
 40
5.0
100
AcDbArc
 50
25.8419327632
 51
154.1580672368
  0
ARC
  5
3FC
100
AcDbEntity
  8
0
100
AcDbCircle
 62
7
  6
CONTINUOUS
 10
68.7379004024
 20
164.1920038099
 40
5.0
100
AcDbArc
 50
180.0
 51
360.0
  0
CIRCLE
  5
3FD
100
AcDbEntity
  8
0
100
AcDbCircle
 62
7
  6
CONTINUOUS
 10
68.7379004024
 20
163.9920038101
 40
4.0
  0
ARC
  5
3FE
100
AcDbEntity
  8
0
100
AcDbCircle
 62
7
  6
CONTINUOUS
 10
51.2535485628
 20
167.2920038101
 40
2.5
100
AcDbArc
 50
119.9999999952
 51
60.0000000045
  0
ARC
  5
3FF
100
AcDbEntity
  8
0
100
AcDbCircle
 62
7
  6
CONTINUOUS
 10
55.9379004024
 20
172.5220038101
 40
1.0
100
AcDbArc
 50
90.0
 51
162.5163123253
  0
ARC
  5
400
100
AcDbEntity
  8
0
100
AcDbCircle
 62
7
  6
CONTINUOUS
 10
46.5879004024
 20
172.5220038101
 40
1.0
100
AcDbArc
 50
17.4836876747
 51
90.0
  0
ARC
  5
401
100
AcDbEntity
  8
0
100
AcDbCircle
 62
7
  6
CONTINUOUS
 10
39.7379004024
 20
171.7920038099
 40
1.0
100
AcDbArc
 50
90.0
 51
180.0
  0
ARC
  5
402
100
AcDbEntity
  8
0
100
AcDbCircle
 62
7
  6
CONTINUOUS
 10
93.1698638325
 20
28.7966746854
 40
11.3891057112
100
AcDbArc
 50
240.0652578418
 51
241.7920956667
  0
ARC
  5
403
100
AcDbEntity
  8
0
100
AcDbCircle
 62
7
  6
CONTINUOUS
 10
79.7051128002
 20
28.0737886152
 40
10.5621208782
100
AcDbArc
 50
298.1402950814
 51
300.0023509943
  0
ARC
  5
404
100
AcDbEntity
  8
0
100
AcDbCircle
 62
7
  6
CONTINUOUS
 10
86.2365485624
 20
21.0920038101
 40
2.7999999558
100
AcDbArc
 50
303.6123748802
 51
236.3876250988
  0
ARC
  5
405
100
AcDbEntity
  8
0
100
AcDbCircle
 62
7
  6
CONTINUOUS
 10
86.2365485624
 20
21.0920038101
 40
2.4999999558
100
AcDbArc
 50
300.0000000865
 51
239.9999999135
  0
ARC
  5
406
100
AcDbEntity
  8
0
100
AcDbCircle
 62
7
  6
CONTINUOUS
 10
74.7379004024
 20
16.5920038103
 40
1.0
100
AcDbArc
 50
180.0000000002
 51
269.5936894309
  0
ARC
  5
407
100
AcDbEntity
  8
0
100
AcDbCircle
 62
7
  6
CONTINUOUS
 10
81.5879004024
 20
15.8620038101
 40
1.0
100
AcDbArc
 50
270.0
 51
342.5163123229
  0
ARC
  5
408
100
AcDbEntity
  8
0
100
AcDbCircle
 62
7
  6
CONTINUOUS
 10
97.7379004024
 20
16.5920038103
 40
1.0
100
AcDbArc
 50
270.3095459232
 51
360.0
  0
ARC
  5
409
100
AcDbEntity
  8
0
100
AcDbCircle
 62
7
  6
CONTINUOUS
 10
90.9379004024
 20
15.8620038101
 40
1.0
100
AcDbArc
 50
197.4836876771
 51
270.0
  0
ARC
  5
40A
100
AcDbEntity
  8
0
100
AcDbCircle
 62
7
  6
CONTINUOUS
 10
97.7379004024
 20
16.5920038103
 40
0.7
100
AcDbArc
 50
270.0
 51
0.0000002178
  0
ARC
  5
40B
100
AcDbEntity
  8
0
100
AcDbCircle
 62
7
  6
CONTINUOUS
 10
74.7379004024
 20
16.5920038103
 40
0.7
100
AcDbArc
 50
180.0000000005
 51
270.0
  0
ARC
  5
40C
100
AcDbEntity
  8
0
100
AcDbCircle
 62
7
  6
CONTINUOUS
 10
74.462949897
 20
93.3909826751
 40
1.4221055894
100
AcDbArc
 50
81.9173327714
 51
90.0019949927
  0
ARC
  5
40D
100
AcDbEntity
  8
0
100
AcDbCircle
 62
7
  6
CONTINUOUS
 10
74.6629004024
 20
79.3298245757
 40
0.8
100
AcDbArc
 50
270.0
 51
360.0
  0
ARC
  5
40E
100
AcDbEntity
  8
0
100
AcDbCircle
 62
7
  6
CONTINUOUS
 10
114.3620567181
 20
30.5659163062
 40
12.5108683723
100
AcDbArc
 50
293.1615812643
 51
294.6645360394
  0
ARC
  5
40F
100
AcDbEntity
  8
0
100
AcDbCircle
 62
7
  6
CONTINUOUS
 10
114.9410261156
 20
15.0514088081
 40
9.7672552904
100
AcDbArc
 50
58.0275432231
 51
60.07958065
  0
ARC
  5
410
100
AcDbEntity
  8
0
100
AcDbCircle
 62
7
  6
CONTINUOUS
 10
103.7379004024
 20
24.1920038103
 40
5.3
100
AcDbArc
 50
0.0000001463
 51
179.9999996758
  0
ARC
  5
411
100
AcDbEntity
  8
0
100
AcDbCircle
 62
7
  6
CONTINUOUS
 10
103.9379004024
 20
24.5570038101
 40
5.0
100
AcDbArc
 50
205.8419327632
 51
334.1580672368
  0
ARC
  5
412
100
AcDbEntity
  8
0
100
AcDbCircle
 62
7
  6
CONTINUOUS
 10
103.7379004024
 20
24.1920038103
 40
5.0
100
AcDbArc
 50
0.0
 51
180.0000000056
  0
CIRCLE
  5
413
100
AcDbEntity
  8
0
100
AcDbCircle
 62
7
  6
CONTINUOUS
 10
103.7379004024
 20
24.3920038101
 40
4.0
  0
ARC
  5
414
100
AcDbEntity
  8
0
100
AcDbCircle
 62
7
  6
CONTINUOUS
 10
121.2379004024
 20
31.6920038101
 40
3.0999999564
100
AcDbArc
 50
101.6312929925
 51
238.3860310034
  0
ARC
  5
415
100
AcDbEntity
  8
0
100
AcDbCircle
 62
7
  6
CONTINUOUS
 10
121.2129004025
 20
21.0920038101
 40
2.8
100
AcDbArc
 50
120.0000000024
 51
226.4264064672
  0
ARC
  5
416
100
AcDbEntity
  8
0
100
AcDbCircle
 62
7
  6
CONTINUOUS
 10
121.2379004024
 20
31.6920038101
 40
2.5999999564
100
AcDbArc
 50
92.7509267454
 51
238.3860308205
  0
ARC
  5
417
100
AcDbEntity
  8
0
100
AcDbCircle
 62
7
  6
CONTINUOUS
 10
121.2129004025
 20
21.0920038101
 40
2.5
100
AcDbArc
 50
116.1038811397
 51
229.3074364216
  0
CIRCLE
  5
418
100
AcDbEntity
  8
0
100
AcDbCircle
 62
7
  6
CONTINUOUS
 10
116.5879004024
 20
18.8420038101
 40
1.5
  0
ARC
  5
419
100
AcDbEntity
  8
0
100
AcDbCircle
 62
7
  6
CONTINUOUS
 10
116.5879004024
 20
15.8620038101
 40
1.0
100
AcDbArc
 50
270.0
 51
342.5163123229
  0
ARC
  5
41A
100
AcDbEntity
  8
0
100
AcDbCircle
 62
7
  6
CONTINUOUS
 10
109.7379004024
 20
16.5920038103
 40
1.0
100
AcDbArc
 50
180.0000000001
 51
270.3095459241
  0
ARC
  5
41B
100
AcDbEntity
  8
0
100
AcDbCircle
 62
7
  6
CONTINUOUS
 10
118.5515485622
 20
16.5920038101
 40
0.9999999363
100
AcDbArc
 50
270.0000000151
 51
353.0216186619
  0
ARC
  5
41C
100
AcDbEntity
  8
0
100
AcDbCircle
 62
7
  6
CONTINUOUS
 10
118.5629004024
 20
26.4600425771
 40
0.9999999335
100
AcDbArc
 50
140.8050325738
 51
179.9999999999
  0
ARC
  5
41D
100
AcDbEntity
  8
0
100
AcDbCircle
 62
7
  6
CONTINUOUS
 10
109.7379004024
 20
16.5920038103
 40
0.7
100
AcDbArc
 50
179.9999998291
 51
269.9999956954
  0
ARC
  5
41E
100
AcDbEntity
  8
0
100
AcDbCircle
 62
7
  6
CONTINUOUS
 10
118.5515485622
 20
16.5920038101
 40
0.6999999363
100
AcDbArc
 50
269.9999332108
 51
360.0
  0
ARC
  5
41F
100
AcDbEntity
  8
0
100
AcDbCircle
 62
7
  6
CONTINUOUS
 10
118.5629004024
 20
26.4600425771
 40
0.6999999335
100
AcDbArc
 50
151.6907499487
 51
180.0001098685
  0
ARC
  5
420
100
AcDbEntity
  8
0
100
AcDbCircle
 62
7
  6
CONTINUOUS
 10
115.7379004024
 20
32.5920038101
 40
0.5
100
AcDbArc
 50
270.0
 51
360.0
  0
ARC
  5
421
100
AcDbEntity
  8
0
100
AcDbCircle
 62
7
  6
CONTINUOUS
 10
119.6129004024
 20
29.0520464241
 40
0.5
100
AcDbArc
 50
0.0
 51
58.3860308203
  0
ARC
  5
422
100
AcDbEntity
  8
0
100
AcDbCircle
 62
7
  6
CONTINUOUS
 10
120.6129004024
 20
42.7889543958
 40
0.5
100
AcDbArc
 50
270.0
 51
360.0
  0
ARC
  5
423
100
AcDbEntity
  8
0
100
AcDbCircle
 62
7
  6
CONTINUOUS
 10
119.6129004024
 20
26.5920038101
 40
0.5
100
AcDbArc
 50
0.0
 51
90.0000000003
  0
ARC
  5
424
100
AcDbEntity
  8
0
100
AcDbCircle
 62
7
  6
CONTINUOUS
 10
120.6129004024
 20
36.9920038101
 40
0.5
100
AcDbArc
 50
270.0
 51
360.0
  0
ARC
  5
425
100
AcDbEntity
  8
0
100
AcDbCircle
 62
7
  6
CONTINUOUS
 10
120.0309793076
 20
21.4420038101
 40
0.4
100
AcDbArc
 50
90.0
 51
179.0000000101
  0
ARC
  5
426
100
AcDbEntity
  8
0
100
AcDbCircle
 62
7
  6
CONTINUOUS
 10
119.6129004025
 20
26.5920038102
 40
0.1999999999
100
AcDbArc
 50
359.9999999297
 51
90.0000000132
  0
ARC
  5
427
100
AcDbEntity
  8
0
100
AcDbCircle
 62
7
  6
CONTINUOUS
 10
105.5774796712
 20
80.2640856999
 40
34.3544685185
100
AcDbArc
 50
75.4086428521
 51
76.2686778064
  0
ARC
  5
428
100
AcDbEntity
  8
0
100
AcDbCircle
 62
7
  6
CONTINUOUS
 10
108.7374501945
 20
72.2182356041
 40
5.4954753575
100
AcDbArc
 50
269.9883341718
 51
359.9587206772
  0
ARC
  5
429
100
AcDbEntity
  8
0
100
AcDbCircle
 62
7
  6
CONTINUOUS
 10
108.7374501945
 20
72.2182356041
 40
4.9954753575
100
AcDbArc
 50
269.9982455012
 51
359.9925131347
  0
ARC
  5
42A
100
AcDbEntity
  8
0
100
AcDbCircle
 62
7
  6
CONTINUOUS
 10
108.7374232741
 20
72.2183936382
 40
4.4956095818
100
AcDbArc
 50
269.9836751943
 51
0.0100967282
  0
ARC
  5
42B
100
AcDbEntity
  8
0
100
AcDbCircle
 62
7
  6
CONTINUOUS
 10
74.4591060369
 20
97.3303572456
 40
4.2592733687
100
AcDbArc
 50
76.3687217929
 51
89.9489786664
  0
ARC
  5
42C
100
AcDbEntity
  8
0
100
AcDbCircle
 62
7
  6
CONTINUOUS
 10
86.2629004024
 20
156.7920038101
 40
5.15
100
AcDbArc
 50
185.5714732765
 51
354.4285267236
  0
ARC
  5
42D
100
AcDbEntity
  8
0
100
AcDbCircle
 62
7
  6
CONTINUOUS
 10
86.2629004024
 20
156.7920038101
 40
4.75
100
AcDbArc
 50
0.0000000006
 51
180.0
  0
ARC
  5
42E
100
AcDbEntity
  8
0
100
AcDbCircle
 62
7
  6
CONTINUOUS
 10
86.2629004024
 20
156.7920038101
 40
4.65
100
AcDbArc
 50
186.5623592885
 51
353.4374994418
  0
CIRCLE
  5
42F
100
AcDbEntity
  8
0
100
AcDbCircle
 62
7
  6
CONTINUOUS
 10
86.2629004024
 20
156.7920038101
 40
2.6
  0
ARC
  5
430
100
AcDbEntity
  8
0
100
AcDbCircle
 62
7
  6
CONTINUOUS
 10
86.2365485624
 20
167.2920038101
 40
2.5
100
AcDbArc
 50
119.9999999955
 51
60.0000000045
  0
ARC
  5
431
100
AcDbEntity
  8
0
100
AcDbCircle
 62
7
  6
CONTINUOUS
 10
81.5879004024
 20
172.5220038101
 40
1.0
100
AcDbArc
 50
17.4836876747
 51
90.0
  0
ARC
  5
432
100
AcDbEntity
  8
0
100
AcDbCircle
 62
7
  6
CONTINUOUS
 10
90.9379004024
 20
172.5220038101
 40
1.0
100
AcDbArc
 50
90.0
 51
162.5163123253
  0
ARC
  5
433
100
AcDbEntity
  8
0
100
AcDbCircle
 62
7
  6
CONTINUOUS
 10
97.7379004024
 20
171.7920038099
 40
1.0
100
AcDbArc
 50
0.0
 51
90.0000000005
  0
ARC
  5
434
100
AcDbEntity
  8
0
100
AcDbCircle
 62
7
  6
CONTINUOUS
 10
74.7379004024
 20
171.7920038099
 40
1.0
100
AcDbArc
 50
90.0
 51
180.0
  0
ARC
  5
435
100
AcDbEntity
  8
0
100
AcDbCircle
 62
7
  6
CONTINUOUS
 10
108.737894807
 20
134.3669981256
 40
5.4942276305
100
AcDbArc
 50
359.9939466615
 51
89.9979823956
  0
ARC
  5
436
100
AcDbEntity
  8
0
100
AcDbCircle
 62
7
  6
CONTINUOUS
 10
108.737894807
 20
134.3669981256
 40
4.9942276305
100
AcDbArc
 50
359.997031994
 51
90.0037429134
  0
ARC
  5
437
100
AcDbEntity
  8
0
100
AcDbCircle
 62
7
  6
CONTINUOUS
 10
108.7378284083
 20
134.3669584959
 40
4.6942636517
100
AcDbArc
 50
359.9701991823
 51
90.0230161224
  0
ARC
  5
438
100
AcDbEntity
  8
0
100
AcDbCircle
 62
7
  6
CONTINUOUS
 10
117.6629003837
 20
111.5920038101
 40
4.430726868
100
AcDbArc
 50
152.5174835901
 51
207.4825057251
  0
ARC
  5
439
100
AcDbEntity
  8
0
100
AcDbCircle
 62
7
  6
CONTINUOUS
 10
117.6629003837
 20
111.5920038101
 40
3.930726868
100
AcDbArc
 50
150.7853217708
 51
209.2146782294
  0
ARC
  5
43A
100
AcDbEntity
  8
0
100
AcDbCircle
 62
7
  6
CONTINUOUS
 10
117.6629003846
 20
111.5920037915
 40
3.6178845474
100
AcDbArc
 50
244.9643753661
 51
270.0000002463
  0
ARC
  5
43B
100
AcDbEntity
  8
0
100
AcDbCircle
 62
7
  6
CONTINUOUS
 10
117.6629003846
 20
111.5920037915
 40
3.6178845474
100
AcDbArc
 50
89.9999997096
 51
221.0356250331
  0
CIRCLE
  5
43C
100
AcDbEntity
  8
0
100
AcDbCircle
 62
7
  6
CONTINUOUS
 10
117.6629004024
 20
111.5920038101
 40
2.8609778792
  0
ARC
  5
43D
100
AcDbEntity
  8
0
100
AcDbCircle
 62
7
  6
CONTINUOUS
 10
117.6629004024
 20
111.5920038101
 40
2.7669155185
100
AcDbArc
 50
78.2702937622
 51
101.7297062378
  0
ARC
  5
43E
100
AcDbEntity
  8
0
100
AcDbCircle
 62
7
  6
CONTINUOUS
 10
117.6629004024
 20
111.5920038101
 40
2.7669155185
100
AcDbArc
 50
258.2702937622
 51
281.7297062378
  0
ARC
  5
43F
100
AcDbEntity
  8
0
100
AcDbCircle
 62
7
  6
CONTINUOUS
 10
117.6629004024
 20
111.5920038101
 40
1.0
100
AcDbArc
 50
30.0
 51
55.7711336723
  0
ARC
  5
440
100
AcDbEntity
  8
0
100
AcDbCircle
 62
7
  6
CONTINUOUS
 10
117.6629004024
 20
111.5920038101
 40
1.0
100
AcDbArc
 50
304.2288663278
 51
330.0000000002
  0
ARC
  5
441
100
AcDbEntity
  8
0
100
AcDbCircle
 62
7
  6
CONTINUOUS
 10
117.6629004024
 20
111.5920038101
 40
1.0
100
AcDbArc
 50
210.0
 51
235.7711336722
  0
ARC
  5
442
100
AcDbEntity
  8
0
100
AcDbCircle
 62
7
  6
CONTINUOUS
 10
117.6629004024
 20
111.5920038101
 40
1.0
100
AcDbArc
 50
124.2288663278
 51
150.0000000002
  0
ARC
  5
443
100
AcDbEntity
  8
0
100
AcDbCircle
 62
7
  6
CONTINUOUS
 10
105.7420018551
 20
142.267901875
 40
33.6820313491
100
AcDbArc
 50
283.722730818
 51
284.5999360503
  0
ARC
  5
444
100
AcDbEntity
  8
0
100
AcDbCircle
 62
7
  6
CONTINUOUS
 10
128.2237658435
 20
145.311112698
 40
16.3447384894
100
AcDbArc
 50
137.7915115177
 51
140.1156956601
  0
ARC
  5
445
100
AcDbEntity
  8
0
100
AcDbCircle
 62
7
  6
CONTINUOUS
 10
121.2629004024
 20
156.7920038101
 40
5.67
100
AcDbArc
 50
190.1582097409
 51
259.1579875549
  0
ARC
  5
446
100
AcDbEntity
  8
0
100
AcDbCircle
 62
7
  6
CONTINUOUS
 10
121.2629004024
 20
156.7920038101
 40
5.17
100
AcDbArc
 50
185.5498523945
 51
258.9913150504
  0
ARC
  5
447
100
AcDbEntity
  8
0
100
AcDbCircle
 62
7
  6
CONTINUOUS
 10
103.9379004024
 20
163.8270038101
 40
5.0
100
AcDbArc
 50
25.8419327632
 51
154.1580672368
  0
ARC
  5
448
100
AcDbEntity
  8
0
100
AcDbCircle
 62
7
  6
CONTINUOUS
 10
103.7379004024
 20
164.1920038099
 40
5.0
100
AcDbArc
 50
180.0
 51
360.0
  0
CIRCLE
  5
449
100
AcDbEntity
  8
0
100
AcDbCircle
 62
7
  6
CONTINUOUS
 10
103.7379004024
 20
163.9920038101
 40
4.0
  0
ARC
  5
44A
100
AcDbEntity
  8
0
100
AcDbCircle
 62
7
  6
CONTINUOUS
 10
121.2379004024
 20
156.6920038101
 40
2.6
100
AcDbArc
 50
115.6384046428
 51
267.2443329492
  0
ARC
  5
44B
100
AcDbEntity
  8
0
100
AcDbCircle
 62
7
  6
CONTINUOUS
 10
121.2129004025
 20
167.29200381
 40
2.5
100
AcDbArc
 50
130.6925635776
 51
243.89611886
  0
CIRCLE
  5
44C
100
AcDbEntity
  8
0
100
AcDbCircle
 62
7
  6
CONTINUOUS
 10
116.6129004024
 20
170.0920038101
 40
1.5
  0
ARC
  5
44D
100
AcDbEntity
  8
0
100
AcDbCircle
 62
7
  6
CONTINUOUS
 10
116.5879004024
 20
172.5220038101
 40
1.0
100
AcDbArc
 50
17.4836876747
 51
90.0
  0
ARC
  5
44E
100
AcDbEntity
  8
0
100
AcDbCircle
 62
7
  6
CONTINUOUS
 10
118.5515485622
 20
171.7920038101
 40
1.0
100
AcDbArc
 50
0.0
 51
89.9999998247
  0
ARC
  5
44F
100
AcDbEntity
  8
0
100
AcDbCircle
 62
7
  6
CONTINUOUS
 10
109.7379004024
 20
171.7920038099
 40
1.0
100
AcDbArc
 50
89.9999999995
 51
180.0
  0
ARC
  5
450
100
AcDbEntity
  8
0
100
AcDbCircle
 62
7
  6
CONTINUOUS
 10
120.6129004024
 20
151.169750694
 40
0.5
100
AcDbArc
 50
0.0000000056
 51
82.6857230874
  0
ARC
  5
451
100
AcDbEntity
  8
0
100
AcDbCircle
 62
7
  6
CONTINUOUS
 10
120.6129004024
 20
145.5950532244
 40
0.5
100
AcDbArc
 50
0.0
 51
90.0
  0
ARC
  5
452
100
AcDbEntity
  8
0
100
AcDbCircle
 62
7
  6
CONTINUOUS
 10
119.9809793077
 20
166.9420038098
 40
0.4
100
AcDbArc
 50
180.9999999225
 51
285.4995107756
  0
SPLINE
  5
453
100
AcDbEntity
  8
0
100
AcDbSpline
 62
7
  6
CONTINUOUS
 70
0
 71
3
 72
11
 73
7
 74
0
 42
0.0000001
 43
0.0000001
 44
0.0000000001
 40
0.0
 40
0.0
 40
0.0
 40
0.0
 40
0.2547300198
 40
0.5081331776
 40
0.7580572659
 40
1.0
 40
1.0
 40
1.0
 40
1.0
 10
62.0629004024
 20
93.8575692403
 30
0.0
 10
62.0629004024
 20
93.9713386231
 30
0.0
 10
62.1034139885
 20
94.2003131198
 30
0.0
 10
62.2783096199
 20
94.4983889087
 30
0.0
 10
62.5421709179
 20
94.7127840325
 30
0.0
 10
62.7559192413
 20
94.7837425799
 30
0.0
 10
62.8629004024
 20
94.7989614046
 30
0.0
  0
SPLINE
  5
454
100
AcDbEntity
  8
0
100
AcDbSpline
 62
7
  6
CONTINUOUS
 70
0
 71
3
 72
11
 73
7
 74
0
 42
0.0000001
 43
0.0000001
 44
0.0000000001
 40
0.0
 40
0.0
 40
0.0
 40
0.0
 40
0.241934668
 40
0.4918698309
 40
0.7452822566
 40
1.0
 40
1.0
 40
1.0
 40
1.0
 10
74.6629004024
 20
94.7989614046
 30
0.0
 10
74.7698780383
 20
94.7837430814
 30
0.0
 10
74.9836281547
 20
94.7127863299
 30
0.0
 10
75.2474943989
 20
94.4983871665
 30
0.0
 10
75.4223906774
 20
94.2003065481
 30
0.0
 10
75.4629004024
 20
93.971333184
 30
0.0
 10
75.4629004024
 20
93.8575692403
 30
0.0
  0
SPLINE
  5
455
100
AcDbEntity
  8
0
100
AcDbSpline
 62
7
  6
CONTINUOUS
 70
0
 71
3
 72
9
 73
5
 74
0
 42
0.0000001
 43
0.0000001
 44
0.0000000001
 40
0.0
 40
0.0
 40
0.0
 40
0.0
 40
0.1015396734
 40
1.0
 40
1.0
 40
1.0
 40
1.0
 10
16.3879004024
 20
34.2876732615
 30
0.0
 10
16.4042218789
 20
34.3030756473
 30
0.0
 10
16.5656348828
 20
34.4540638581
 30
0.0
 10
16.7334629908
 20
34.5982624294
 30
0.0
 10
16.8879003929
 20
34.7230926958
 30
0.0
  0
SPLINE
  5
456
100
AcDbEntity
  8
0
100
AcDbSpline
 62
7
  6
CONTINUOUS
 70
0
 71
3
 72
9
 73
5
 74
0
 42
0.0000001
 43
0.0000001
 44
0.0000000001
 40
0.0
 40
0.0
 40
0.0
 40
0.0
 40
0.0884622669
 40
1.0
 40
1.0
 40
1.0
 40
1.0
 10
17.3629004024
 20
29.3479955091
 30
0.0
 10
17.3773980837
 20
29.3388653418
 30
0.0
 10
17.541562247
 20
29.2360924558
 30
0.0
 10
17.7087787405
 20
29.1381574773
 30
0.0
 10
17.862900393
 20
29.052046452
 30
0.0
  0
SPLINE
  5
457
100
AcDbEntity
  8
0
100
AcDbSpline
 62
7
  6
CONTINUOUS
 70
0
 71
3
 72
9
 73
5
 74
0
 42
0.0000001
 43
0.0000001
 44
0.0000000001
 40
0.0
 40
0.0
 40
0.0
 40
0.0
 40
0.4968628464
 40
1.0
 40
1.0
 40
1.0
 40
1.0
 10
62.0629004024
 20
94.3588462738
 30
0.0
 10
62.0629004024
 20
94.4811584601
 30
0.0
 10
62.1137318491
 20
94.729851326
 30
0.0
 10
62.2579303394
 20
94.9382096256
 30
0.0
 10
62.3463349218
 20
95.0249570655
 30
0.0
  0
SPLINE
  5
458
100
AcDbEntity
  8
0
100
AcDbSpline
 62
7
  6
CONTINUOUS
 70
0
 71
3
 72
9
 73
5
 74
0
 42
0.0000001
 43
0.0000001
 44
0.0000000001
 40
0.0
 40
0.0
 40
0.0
 40
0.0
 40
0.496866068
 40
1.0
 40
1.0
 40
1.0
 40
1.0
 10
62.3463349218
 20
95.0249570655
 30
0.0
 10
62.4394040878
 20
95.1162816514
 30
0.0
 10
62.665924299
 20
95.263473366
 30
0.0
 10
62.9308636287
 20
95.3138181248
 30
0.0
 10
63.0629004039
 20
95.3138181246
 30
0.0
  0
SPLINE
  5
459
100
AcDbEntity
  8
0
100
AcDbSpline
 62
7
  6
CONTINUOUS
 70
0
 71
3
 72
11
 73
7
 74
0
 42
0.0000001
 43
0.0000001
 44
0.0000000001
 40
0.0
 40
0.0
 40
0.0
 40
0.0
 40
0.2558111178
 40
0.5082605861
 40
0.7558718586
 40
1.0
 40
1.0
 40
1.0
 40
1.0
 10
62.8629004024
 20
91.6751913873
 30
0.0
 10
62.7590365929
 20
91.6751899979
 30
0.0
 10
62.5505754141
 20
91.6362411652
 30
0.0
 10
62.2848446828
 20
91.4684371254
 30
0.0
 10
62.1053015766
 20
91.2156383558
 30
0.0
 10
62.0629004024
 20
91.0136565762
 30
0.0
 10
62.0629004024
 20
90.9145362604
 30
0.0
  0
SPLINE
  5
45A
100
AcDbEntity
  8
0
100
AcDbSpline
 62
7
  6
CONTINUOUS
 70
0
 71
3
 72
10
 73
6
 74
0
 42
0.0000001
 43
0.0000001
 44
0.0000000001
 40
0.0
 40
0.0
 40
0.0
 40
0.0
 40
0.1785811925
 40
0.4120967702
 40
1.0
 40
1.0
 40
1.0
 40
1.0
 10
55.7294328721
 20
67.2644731602
 30
0.0
 10
55.7294328721
 20
67.2752598713
 30
0.0
 10
55.7230527862
 20
67.2998846829
 30
0.0
 10
55.6977517122
 20
67.3546533033
 30
0.0
 10
55.6706868201
 20
67.3965613232
 30
0.0
 10
55.6508258469
 20
67.4259985649
 30
0.0
  0
SPLINE
  5
45B
100
AcDbEntity
  8
0
100
AcDbSpline
 62
7
  6
CONTINUOUS
 70
0
 71
3
 72
9
 73
5
 74
0
 42
0.0000001
 43
0.0000001
 44
0.0000000001
 40
0.0
 40
0.0
 40
0.0
 40
0.0
 40
0.233103706
 40
1.0
 40
1.0
 40
1.0
 40
1.0
 10
55.6508258469
 20
67.4259985649
 30
0.0
 10
55.6347345322
 20
67.4498485503
 30
0.0
 10
55.5633061707
 20
67.5505398381
 30
0.0
 10
55.4873961943
 20
67.6479071696
 30
0.0
 10
55.4294328721
 20
67.7227374969
 30
0.0
  0
SPLINE
  5
45C
100
AcDbEntity
  8
0
100
AcDbSpline
 62
7
  6
CONTINUOUS
 70
0
 71
3
 72
11
 73
7
 74
0
 42
0.0000001
 43
0.0000001
 44
0.0000000001
 40
0.0
 40
0.0
 40
0.0
 40
0.0
 40
0.2558111367
 40
0.5082606841
 40
0.7558722156
 40
1.0
 40
1.0
 40
1.0
 40
1.0
 10
74.6629004024
 20
91.6751912656
 30
0.0
 10
74.7667642131
 20
91.6751899466
 30
0.0
 10
74.9752254474
 20
91.6362411616
 30
0.0
 10
75.2409562571
 20
91.4684369244
 30
0.0
 10
75.4204990338
 20
91.2156379974
 30
0.0
 10
75.4629004024
 20
91.0136563465
 30
0.0
 10
75.4629004024
 20
90.9145361819
 30
0.0
  0
SPLINE
  5
45D
100
AcDbEntity
  8
0
100
AcDbSpline
 62
7
  6
CONTINUOUS
 70
0
 71
3
 72
9
 73
5
 74
0
 42
0.0000001
 43
0.0000001
 44
0.0000000001
 40
0.0
 40
0.0
 40
0.0
 40
0.0
 40
0.503133932
 40
1.0
 40
1.0
 40
1.0
 40
1.0
 10
74.4629004007
 20
95.3138181246
 30
0.0
 10
74.5949371759
 20
95.3138181248
 30
0.0
 10
74.8598765058
 20
95.2634733661
 30
0.0
 10
75.0863967171
 20
95.1162816514
 30
0.0
 10
75.1794658831
 20
95.0249570655
 30
0.0
  0
SPLINE
  5
45E
100
AcDbEntity
  8
0
100
AcDbSpline
 62
7
  6
CONTINUOUS
 70
0
 71
3
 72
9
 73
5
 74
0
 42
0.0000001
 43
0.0000001
 44
0.0000000001
 40
0.0
 40
0.0
 40
0.0
 40
0.0
 40
0.5031371536
 40
1.0
 40
1.0
 40
1.0
 40
1.0
 10
75.1794658831
 20
95.0249570655
 30
0.0
 10
75.2678704655
 20
94.9382096256
 30
0.0
 10
75.4120689558
 20
94.729851326
 30
0.0
 10
75.4629004024
 20
94.4811584602
 30
0.0
 10
75.4629004024
 20
94.3588462738
 30
0.0
  0
SPLINE
  5
45F
100
AcDbEntity
  8
0
100
AcDbSpline
 62
7
  6
CONTINUOUS
 70
0
 71
3
 72
17
 73
13
 74
0
 42
0.0000001
 43
0.0000001
 44
0.0000000001
 40
0.0
 40
0.0
 40
0.0
 40
0.0
 40
0.0056739149
 40
0.0219158884
 40
0.0481895611
 40
0.0839512108
 40
0.1286565874
 40
0.181722974
 40
0.3099278872
 40
0.4623383093
 40
0.6326304364
 40
1.0
 40
1.0
 40
1.0
 40
1.0
 10
17.9329026052
 20
19.2314828487
 30
0.0
 10
17.9333623735
 20
19.2318955228
 30
0.0
 10
17.935882123
 20
19.2295764987
 30
0.0
 10
17.9403880457
 20
19.2287659644
 30
0.0
 10
17.9483379636
 20
19.2245839179
 30
0.0
 10
17.9588826637
 20
19.2201534373
 30
0.0
 10
17.9721936224
 20
19.2141310169
 30
0.0
 10
17.9946843855
 20
19.2042281931
 30
0.0
 10
18.0279625881
 20
19.1895975187
 30
0.0
 10
18.072993711
 20
19.1700520038
 30
0.0
 10
18.1420457748
 20
19.1404183258
 30
0.0
 10
18.1959823219
 20
19.1176550203
 30
0.0
 10
18.2329004024
 20
19.1022550824
 30
0.0
  0
SPLINE
  5
460
100
AcDbEntity
  8
0
100
AcDbSpline
 62
7
  6
CONTINUOUS
 70
0
 71
3
 72
9
 73
5
 74
0
 42
0.0000001
 43
0.0000001
 44
0.0000000001
 40
0.0
 40
0.0
 40
0.0
 40
0.0
 40
0.0844935566
 40
1.0
 40
1.0
 40
1.0
 40
1.0
 10
117.7879004246
 20
27.0920038101
 30
0.0
 10
117.7919987123
 20
27.0833685045
 30
0.0
 10
117.8408155537
 20
26.9812978428
 30
0.0
 10
117.893511055
 20
26.8809344726
 30
0.0
 10
117.9466198719
 20
26.7920038101
 30
0.0
  0
SPLINE
  5
461
100
AcDbEntity
  8
0
100
AcDbSpline
 62
7
  6
CONTINUOUS
 70
0
 71
3
 72
11
 73
7
 74
0
 42
0.0000001
 43
0.0000001
 44
0.0000000001
 40
0.0
 40
0.0
 40
0.0
 40
0.0
 40
0.251710924
 40
0.5002425073
 40
0.748647633
 40
1.0
 40
1.0
 40
1.0
 40
1.0
 10
74.4629004007
 20
98.3877432856
 30
0.0
 10
74.6017616498
 20
98.3877630234
 30
0.0
 10
74.8813905788
 20
98.3156210701
 30
0.0
 10
75.2054925969
 20
98.0431177331
 30
0.0
 10
75.4124471245
 20
97.6773463252
 30
0.0
 10
75.4628907444
 20
97.3996539168
 30
0.0
 10
75.4629004024
 20
97.2609904716
 30
0.0
  0
SPLINE
  5
462
100
AcDbEntity
  8
0
100
AcDbSpline
 62
7
  6
CONTINUOUS
 70
0
 71
3
 72
10
 73
6
 74
0
 42
0.0000001
 43
0.0000001
 44
0.0000000001
 40
0.0
 40
0.0
 40
0.0
 40
0.0
 40
0.178263305
 40
0.4119310002
 40
1.0
 40
1.0
 40
1.0
 40
1.0
 10
55.7294328721
 20
75.2508295437
 30
0.0
 10
55.7294328721
 20
75.2617882078
 30
0.0
 10
55.722878672
 20
75.2868312875
 30
0.0
 10
55.6970105728
 20
75.3425109625
 30
0.0
 10
55.6693602059
 20
75.3851212948
 30
0.0
 10
55.6490812694
 20
75.4150492317
 30
0.0
  0
SPLINE
  5
463
100
AcDbEntity
  8
0
100
AcDbSpline
 62
7
  6
CONTINUOUS
 70
0
 71
3
 72
9
 73
5
 74
0
 42
0.0000001
 43
0.0000001
 44
0.0000000001
 40
0.0
 40
0.0
 40
0.0
 40
0.0
 40
0.2335268266
 40
1.0
 40
1.0
 40
1.0
 40
1.0
 10
55.6490812694
 20
75.4150492317
 30
0.0
 10
55.6330533794
 20
75.4387034151
 30
0.0
 10
55.5621143628
 20
75.5384271562
 30
0.0
 10
55.4868618309
 20
75.6349466461
 30
0.0
 10
55.4294328721
 20
75.7090871132
 30
0.0
  0
SPLINE
  5
464
100
AcDbEntity
  8
0
100
AcDbSpline
 62
7
  6
CONTINUOUS
 70
0
 71
3
 72
11
 73
7
 74
0
 42
0.0000001
 43
0.0000001
 44
0.0000000001
 40
0.0
 40
0.0
 40
0.0
 40
0.0
 40
0.2514091677
 40
0.4999876268
 40
0.7485461284
 40
1.0
 40
1.0
 40
1.0
 40
1.0
 10
62.0629004024
 20
97.2609910041
 30
0.0
 10
62.0629097545
 20
97.3996848236
 30
0.0
 10
62.1132294903
 20
97.6775461682
 30
0.0
 10
62.3205618423
 20
98.0433047733
 30
0.0
 10
62.644692946
 20
98.3156674404
 30
0.0
 10
62.9241819242
 20
98.3877657701
 30
0.0
 10
63.0629004039
 20
98.3877434082
 30
0.0
  0
SPLINE
  5
465
100
AcDbEntity
  8
0
100
AcDbSpline
 62
7
  6
CONTINUOUS
 70
0
 71
3
 72
9
 73
5
 74
0
 42
0.0000001
 43
0.0000001
 44
0.0000000001
 40
0.0
 40
0.0
 40
0.0
 40
0.0
 40
0.3397336883
 40
1.0
 40
1.0
 40
1.0
 40
1.0
 10
120.6129004024
 20
34.7283461618
 30
0.0
 10
120.6713351151
 20
34.680714539
 30
0.0
 10
120.8417394277
 20
34.538537359
 30
0.0
 10
121.0067967177
 20
34.390105006
 30
0.0
 10
121.1129004024
 20
34.288997245
 30
0.0
  0
ENDSEC
  0
SECTION
  2
OBJECTS
  0
DICTIONARY
  5
C
100
AcDbDictionary
280
0
281
1
  3
ACAD_GROUP
350
D
  3
ACAD_MLINESTYLE
350
17
  3
ACAD_LAYOUT
350
1A
  3
ACAD_PLOTSETTINGS
350
19
  3
ACAD_PLOTSTYLENAME
350
E
  0
DICTIONARY
  5
D
102
{ACAD_REACTORS
330
C
102
}
100
AcDbDictionary
280
0
281
1
  0
ACDBDICTIONARYWDFLT
  5
E
102
{ACAD_REACTORS
330
C
102
}
100
AcDbDictionary
281
1
  3
Normal
350
F
100
AcDbDictionaryWithDefault
340
F
  0
DICTIONARY
  5
17
102
{ACAD_REACTORS
330
C
102
}
100
AcDbDictionary
280
0
281
1
  3
Standard
350
18
  0
DICTIONARY
  5
19
102
{ACAD_REACTORS
330
C
102
}
100
AcDbDictionary
281
1
  0
DICTIONARY
  5
1A
102
{ACAD_REACTORS
330
C
102
}
100
AcDbDictionary
281
1
  3
Model
350
466
  3
Layout1
350
467
  0
ACDBPLACEHOLDER
  5
F
102
{ACAD_REACTORS
330
E
102
}
  0
MLINESTYLE
  5
18
102
{ACAD_REACTORS
330
17
102
}
100
AcDbMlineStyle
  2
STANDARD
 70
0
  3

 62
256
 51
90.0
 52
90.0
 71
2
 49
0.5
 62
256
  6
BYLAYER
 49
-0.5
 62
256
  6
BYLAYER
  0
LAYOUT
  5
466
102
{ACAD_REACTORS
330
1A
102
}
100
AcDbPlotSettings
  1

  2
none_device
  4

  6

 40
0.0
 41
0.0
 42
0.0
 43
0.0
 44
210.0
 45
297.0
 46
0.0
 47
0.0
 48
0.0
 49
0.0
140
0.0
141
0.0
142
1.0
143
1.0
 70
1024
 72
1
 73
0
 74
0
  7

 75
0
147
1.0
148
0.0
149
0.0
100
AcDbLayout
  1
Model
 70
0
 71
0
 10
0.0
 20
0.0
 11
210.0
 21
297.0
 12
0.0
 22
0.0
 32
0.0
 14
0.0
 24
0.0
 34
0.0
 15
0.0
 25
0.0
 35
0.0
146
0.0
 13
0.0
 23
0.0
 33
0.0
 16
1.0
 26
0.0
 36
0.0
 17
0.0
 27
1.0
 37
0.0
 76
0
330
210
345
0
346
0
  0
LAYOUT
  5
467
102
{ACAD_REACTORS
330
1A
102
}
100
AcDbPlotSettings
  1

  2
none_device
  4

  6

 40
0.0
 41
0.0
 42
0.0
 43
0.0
 44
210.0
 45
297.0
 46
0.0
 47
0.0
 48
0.0
 49
0.0
140
0.0
141
0.0
142
1.0
143
1.0
 70
0
 72
1
 73
0
 74
0
  7

 75
0
147
1.0
148
0.0
149
0.0
100
AcDbLayout
  1
Layout1
 70
0
 71
1
 10
0.0
 20
0.0
 11
210.0
 21
297.0
 12
0.0
 22
0.0
 32
0.0
 14
0.0
 24
0.0
 34
0.0
 15
0.0
 25
0.0
 35
0.0
146
0.0
 13
0.0
 23
0.0
 33
0.0
 16
1.0
 26
0.0
 36
0.0
 17
0.0
 27
1.0
 37
0.0
 76
0
330
211
345
0
346
0
  0
ENDSEC
  0
EOF
